Oops, an error
Loading. Please wait.

Muscle Museum Bass Tab

version 1
version 1
by Muse
84,496 views 90 this week
11 commentsread comments
1 2 3 4 5
x 68
add to favorites
launch autoscroll
font size
0
reset
guitar tuner
Autoscroll
slow
fast
+/-
esc
set tempo
stop
Help us to improve Ultimate-Guitar.com Take our survey!
×
[Intro]
 
G|----------------|
D|4---4---4---4---|
A|--4---4---4---4-|
E|----------------|
 

[Verse]

G|----------------|----------------|--------------6-|7-4-------------|
D|4---4---4---4---|----------------|4---4---4---4---|----4-------2-3-|
A|--4---4---4---4-|4---4---4---4---|--4---4---4-----|------5---5-----|
E|----------------|--4---4---4---4-|----------------|--------7-------|
 

[PreChorus]

G|----------------|----------------| 
D|----------------|----------------| Then 1 bar of D and 1 bar
A|----------------|----------------| an octave higher (16th notes)
E|2-2-2-----------|4-4-4-----------| 
 
The slide in the background sounds something improvised like this:
G|---------|
D|---------|
A|----0/9\0|
E|---------|
 

[Chorus]
      
G|------------------|-----------------------|
D|------4--------4--|-----------------------|
A|------------------|4-4-4--4-4--4-4-4--4-4-|
E|2-2-2----2-2-2----|-----------------------|
 
G|------------------|---------------------------|
D|------4--------4--|---------------------------|
A|------------------|2-2-2--2-2--2-2-2--2-------|
E|2-2-2----2-2-2----|---------------------5-4-5-|
 
G|------------------|-----------------------|
D|------4--------4--|-----------------------|
A|------------------|4-4-4--4-4--4-4-4--4-4-|
E|2-2-2----2-2-2----|-----------------------|
 
G|------------------|-----------------------|
D|------4--------4--|-------------------0-2-|
A|------------------|2-2-2--2-2--2-2-2------|
E|2-2-2----2-2-2----|-----------------------|
 

[Riff 1]

G|----------------|----------------|----------------|----------------|
D|----2-------2---|----3-------3---|4---4---4---4---|4---4---4---4---|
A|----------------|----------------|--4---4---4---4-|--4---4---4---4-|
E|0-0---0-0-0---0-|1-1---1-1-1---1-|----------------|----------------|
 

[Bridge/End]

G|----------------|----------------|----------------|-----------------|
D|----2-------2---|----3-------3---|4-4-4-4-2-2-2-2-|-----------------|
A|----------------|----------------|----------------|5-5-5-5-5-5-5/12-|
E|0-0---0-0-0---0-|1-1---1-1-1---1-|----------------|-----------------|
                                                        
G|----------------|----------------|----------------|-----------------|
D|----2-------2---|----3-------3---|4-4-4-4-2-2-2-2-|-----------------|
A|----------------|----------------|----------------|5-5-5-5-5-5------|
E|0-0---0-0-0---0-|1-1---1-1-1---1-|----------------|------------10\0-|
          
G|----------------|----------------|----------------|----------------|
D|----------------|----------------|----------------|----------------|
A|0-0-0-0-0-0-0-0-|----------------|--------2-2-0-4-|--------2-2-0-4-|
E|----------------|4-4-4-4-4-4-4-4-|2-2-2-2---------|2-2-2-2---------|
                                                        
G|----------------|----------------|----------------|
D|----------------|----------------|----------------|
A|------0-2-2-0---|------0-2-2-0-4-|----------------|
E|2-2-4---------4-|2-2-4-----------|2---------------|
                              
The exact progression for this song goes like this:
 
Intro
Verse x 4
PreChorus
Chorus
Riff1
Verse x 3
PreChorus
Chorus
Bridge/End



************************************

| /  Slide up
| \  Slide down

************************************
Suggest correction
comments
print report bad tab
11 comments total. Showing first comments. show 1 bad comment
+2 reply
Vox 151 Mar 12, 2004 12:00 AM

hey great tab this one! 100% correct!

0 reply
tabfr3ak 10 Oct 28, 2007 08:44 AM

Great tab! Thx alot...very fun to play :D

guest
You may want to rate the tab now too:
select rating
Wanna post a correction for this tab? Suggest correction