Oops, an error
Loading. Please wait.

Muscle Museum Tab

version 1
version 1
by Muse
54,590 views 21 this week
2 commentsread comments
1 2 3 4 5
accurate
x 4
add to favorites
launch autoscroll
font size
0
reset
how to read this tab
guitar tuner
Autoscroll
slow
fast
+/-
esc
set tempo
stop
Help us to improve Ultimate-Guitar.com Take our survey!
×
muse, muscle museum.
Tabbed by gary, jubilee2@bolt.com.


[Intro]


         (F#m)                       (C#)
e|-----------------------------------------------|
B|--10-10-10-10-10--14-14-14-12-10-10\9--9--9----|
G|--11-11-11-11-11--14-14-14-13-11-11\10-10-10---|
D|-----------------------------------------------|
A|-----------------------------------------------|
E|-----------------------------------------------|

                   (F#m)                     (Bm)
e|-----------------------------------------------|
B|--12-12-10--9--9/10----14-14-14-14-14-15-15-15-|
G|--13-13-11-10-10/11----14-14-14-15-15-16-16-16-|
D|-----------------------------------------------|
A|-----------------------------------------------|
E|-----------------------------------------------|


[Verse]

(Bass)
G|--------------------------------------------------------------------------------|
D|-------------------------------------------------9-12-9-------------------------|
A|-9---9---9---9---4---4---4---4---9---9---9---9----------9---------7-10-9---9----|
E|---9---9---9---9---4---4---4---4---9---9---9---9----------10-7-10---------9-----|


bit before Chorus:

e|--2------2-----2---5-2------------------4-------1-----1---4-1---------------------------------------|
B|--2--------2-2---2-----2----------------6---------2-2---2-----2-------------------------------------|
G|--2-------------------------------------6-----------------------------------------------------------|
D|--4-------------------------------------6-----------------------------------------------------------|
A|--4-------------------------------------4--------------------------------12-12-12-12----------------|
E|--2-------------------------------------4--------------------------------10-10-10-10----------------|


[Chorus]

F#m C# F#m Bm (x2)
E C#

Lyrics:

she had something to confess to
but you don’t have the time so look the other way
you will wait untill its over
to reveal waht you’ve never shown her
too little much to late

too long trying to resist it
you’ve just gone and missed it
its escaped your world

can you see that i am needing and begging for so much more
than you could ever give
i don’t want you to adore me
don’t want you to ignore me
when it pleases you
i’ll do it on my own

I have played in every toilet
but you still want to spoil it
to prove i’ve made a big mistake

too long trying to resist it
you’ve just gone and missed it
its escaped your world

can you see that i am needing and begging for so much more
than you could ever give
i don’t want you to adore me
don’t want you to ignore me
when it please you
i’ll do it on my own
i’ll do it on my own


************************************

| /  Slide up
| \  Slide down

************************************
Suggest correction
comments
print report bad tab
2 comments total.
0 reply
Infant 440 wrote on February 6 2007, 04:37 pm

That's bollocks!!

0 reply
grifsgames75 97 wrote on September 16 2015, 06:04 pm

Holy shit 2001... how old is this site xD

guest
You may want to rate the tab now too:
select rating
Please do not post tabs as comments. Select "correction" instead!