Oops, an error
Loading. Please wait.

Muscle Museum Tab

version 4
version 4
by Muse
30,315 views 54 this week
2 commentsread comments
1 2 3 4 5
accurate
x 5
add to favorites
launch autoscroll
font size
0
reset
how to read this tab
guitar tuner
Autoscroll
slow
fast
+/-
esc
set tempo
stop
Help us to improve Ultimate-Guitar.com Take our survey!
×
Author
Artist: Muse
Song: Muscle Museum (Showbiz)
Author: Matthew Bellamy

Tuning: Standard


[Intro]

(played twice)
e|----------------------------------------------------------------|
B|10--10--10--10--10--10--10--10--14--14--14--12--12--12-\10--10--|
G|11--11--11--11--11--11--11--11--14--14--14--13--13--13-\11--11--|
D|----------------------------------------------------------------|
A|----------------------------------------------------------------|
E|----------------------------------------------------------------|(x2)

e|----------------------------------------------------------------|
B|10--10--10--9p7h9---9---9---9--/12--12--12-\10--10--10-\9---9---|
G|10--11--11------10--10--10--10-/13--13--13-\11--11--11-\10--10--|
D|----------------------------------------------------------------|
A|----------------------------------------------------------------|
E|----------------------------------------------------------------|

e|----------------------------------------------------------------|
B|9---9---9---7h9h10--10--10--10--14--14--14--14--14--14--14--14--|
G|10--10--10------11--11--11--11--14--14--14--15--15--15--15--15--|
D|----------------------------------------------------------------|
A|----------------------------------------------------------------|
E|----------------------------------------------------------------|

e|----------------------------------------------------------------|
B|15-(15--15--15--15--15--15--15--15)-----------------------------|
G|16-(16--16--16--16--16--16--16--16)-----------------------------|
D|----these notes are played only at the first time---------------|
A|----------------------------------------------------------------|
E|----------------------------------------------------------------|


[Bridge]

(1)First, play this 
e|----------------------------------------------------------------|
B|2---2-----------2---2-----------2---2-----------2---2-----------|
G|--------2---2-----------2---2-----------2---2-----------2---2---|
D|----------------------------------------------------------------|
A|----------------------------------------------------------------|
E|----------------------------------------------------------------|
  PM  PM  PM  PM  PM  PM  PM  PM  PM  PM  PM  PM  PM  PM  PM  PM

e|----------------------------------------------------------------|
B|----------------------------------------------------------------|
G|1---1-----------1---1-----------1---1-----------1---1-----------|
D|--------3---3-----------3---3-----------3---3-----------3---0---|
A|----------------------------------------------------------------|
E|----------------------------------------------------------------|
PM  PM  PM  PM  PM  PM  PM  PM  PM  PM  PM  PM  PM  PM  PM  PM

e|----------------------------------------------------------------|
B|2---2-----------2---2-----------2---2-----------2---2-----------|
G|--------2---2-----------2---2-----------2---2-----------2---2---|
D|----------------------------------------------------------------|
A|----------------------------------------------------------------|
E|----------------------------------------------------------------|
PM  PM  PM  PM  PM  PM  PM  PM  PM  PM  PM  PM  PM  PM  PM  PM

(2)then, play this
e|----------------------------------------------------------------|
B|2---2-------------------2---2---3---3---0---0-------------------|
G|--------2---2-----------------------------------1---1-----------|
D|----------------4---4-----------------------------------3---0---|
A|----------------------------------------------------------------|
E|----------------------------------------------------------------|
  PM  PM  PM  PM  PM  PM  PM  PM  PM  PM  PM  PM  PM  PM  PM  PM

(3)then, go back to bridge(1) and now play this chord after it
e|----------------------------------------------------------------|
B|3~--------------------------------------------------------------|
G|4~--------------------------------------------------------------|
D|----------------------------------------------------------------|
A|----------------------------------------------------------------|
E|----------------------------------------------------------------|

(4)
e|----------------------------------------------------------------|
B|----------------2--/7-------7-------2--/7---7-------7-----------|
G|------------------------6-------6---------------6-------6-------|
D|4---4---4-------------------------------------------------------|
A|4---4---4-------------------------------------------------------|
E|2---2---2-------------------------------------------------------|

e|----------------------------------------------------------------|
B|----------------2--/6-------6-------2--/6---6-------6-----------|
G|6---6---6---------------6-------6---------------6-------6-------|
D|6---6---6-------------------------------------------------------|
A|4---4---4-------------------------------------------------------|
E|----------------------------------------------------------------|

(5)It works well to weeken palm mute gradually
e|----------------------------------------------------------------|
B|----------------------------------------------------------------|
G|2---2---2---2---2---2---2---2---2---2---2---2---2---2---2---2---|
D|----------------------------------------------------------------|
A|----------------------------------------------------------------|
E|----------------------------------------------------------------|
  PM  PM  PM  PM  PM  PM  PM  PM  PM  PM  PM  PM  PM  PM  PM  PM

e|----------------------------------------------------------------|
B|--------------------------------3---3---3---3---3---3---3---3---|
G|2---2---2---2---2---2---2---2---2---2---2---2---2---2---2---2---|
D|4---4---4---4---4---4---4---4---4---4---4---4---4---4---4---4---|
A|----------------------------------------------------------------|
E|----------------------------------------------------------------|
PM  PM  PM  PM  PM  PM  PM  PM  PM  PM  PM  PM  PM  PM  PM  PM


[Verse]

(1)played twice
e|----------------------------------------------------------------|
B|----------------------------------------------------------------|
G|----------------------------------------------------------------|
D|4---4---4-------4-------4-------4---4---4-------4-------4-------|
A|4---4---4-------4-------4-------4---4---4-------4-------4-------|
E|2---2---2-------2-------2-------2---2---2-------2-------2-------|

e|----------------------------------------------------------------|
B|----------------------------------------------------------------|
G|----------------------------------------------------------------|
D|6---6---6-------6-------6-------6---6---6-------6-------6-------|
A|6---6---6-------6-------6-------6---6---6-------6-------6-------|
E|4---4---4-------4-------4-------4---4---4-------4-------4-------|

e|----------------------------------------------------------------|
B|----------------------------------------------------------------|
G|----------------------------------------------------------------|
D|4---4---4-------4-------4-------4---4---4-------4-------4-------|
A|4---4---4-------4-------4-------4---4---4-------4-------4-------|
E|2---2---2-------2-------2-------2---2---2-------2-------2-------|

e|2---2---2-------2-------2---------------------------------------|
B|3---3---3-------3-------3-------3-------2-----------------------|
G|4---4---4-------4-------4-------4-------4-------4-------2-------|
D|4---4---4-------4-------4-------4-------4-------4-------4-------|
A|2---2---2-------2-------2-------2-------2-------2-------2-------|
E|----------------------------------------------------------------|

(2)
e|----------------------------------------------------------------|
B|0-------0-------0-------0-------0-------0-------0-------0-------|
G|1-------1-------1-------1-------1-------1-------1-------1-------|
D|2-------2-------2-------2-------2-------2-------2-------2-------|
A|2-------2-------2-------2-------2-------2-------2-------2-------|
E|0-------0-------0-------0-------0-------0-------0-------0-------|

e|----------------------------------------------------------------|
B|----------------------------------------------------------------|
G|6-------6-------6-------6-------6-------6-------6-------6-------|
D|6-------6-------6-------6-------6-------6-------6-------6-------|
A|4-------4-------4-------4-------4-------4-------4-------4-------|
E|----------------------------------------------------------------|


Then, Go back to INTRO (x 1)


[Interlude]

e|----------------------------------------------------------------|
B|-----------------b7--b7-----------------------------------------|
G|--------4-------6--r6-------------------------------------------|
D|----6-------6---------------------------------------------------|
A|4---------------------------------------------------------------|
E|----------------------------------------------------------------|


Then, play BRIDGE (1) and (3)


After the bridge, play this instead of BRIDGE (4)
e|----------------------------------------------------------------|
B|----------------2--/7-------7-------2--/7---7-------7-----------|
G|------------------------6-------6---------------6-------6-------|
D|4---4---4-------------------------------------------------------|
A|4---4---4-------------------------------------------------------|
E|2---2---2-------------------------------------------------------|

e|----------------------------------------------------------------|
B|----------------2--/6-------6--b7--r6---------------------------|
G|6---6---6---------------6---------------6-----------------------|
D|6---6---6-------------------------------------------------------|
A|4---4---4-------------------------------------------------------|
E|----------------------------------------------------------------|


And play BRIDGE (5) once, VERSE (1) twice


[Outro]

(1)played twice
e|----------------------------------------------------------------|
B|0-------0-------0-------0-------0-------0-------0-------0-------|
G|1-------1-------1-------1-------1-------1-------1-------1-------|
D|2-------2-------2-------2-------2-------2-------2-------2-------|
A|2-------2-------2-------2-------2-------2-------2-------2-------|
E|0-------0-------0-------0-------0-------0-------0-------0-------|

e|----------------------------------------------------------------|
B|----------------------------------------------------------------|
G|6-------6-------6-------6-------6-------6-------6-------6-------|
D|6-------6-------6-------6-------6-------6-------6-------6-------|
A|4-------4-------4-------4-------4-------4-------4-------4-------|
E|----------------------------------------------------------------|

e|----------------------------------------------------------------|
B|----------------------------------------------------------------|
G|----------------------------------------------------------------|
D|4-------4-------4-------4-------2-------2-------2-------2-------|
A|4-------4-------4-------4-------2-------2-------2-------2-------|
E|2-------2-------2-------2-------0-------0-------0-------0-------|

e|----------------------------------------------------------------|
B|----------------------------------------------------------------|
G|7-------7-------7-------7-------7-------7-------7-------7-------|
D|7-------7-------7-------7-------7-------7-------5-------7-------|
A|5-------5-------5-------5-------5-------5-------5-------5-------|
E|----------------------------------------------------------------|

(2)this is the end
e|----------------------------------------------------------------|
B|----------------------------------------------------------------|
G|6-------6-------6-------6-------6-------6-------6-------6-------|
D|7-------7-------7-------7-------7-------7-------7-------7-------|
A|7-------7-------7-------7-------7-------7-------7-------7-------|
E|5-------5-------5-------5-------5-------5-------5-------5-------|

e|----------------------------------------------------------------|
B|----------------------------------------------------------------|
G|6-------6-------6-------6-------6-------6-------6-------6-------|
D|6-------6-------6-------6-------6-------6-------6-------6-------|
A|4-------4-------4-------4-------4-------4-------4-------4-------|
E|----------------------------------------------------------------|

e|----------------------------------------------------------------|
B|----------------------------------------------------------------|
G|----------------------------------------------------------------|
D|4-------4-------4-------4-------9-------9-------9-------9-------|
A|4-------4-------4-------4-------9-------9-------9-------9-------|
E|2-------2-------2-------2-------7-------7-------7-------7-------|

e|----------------------------------------------------------------|
B|----------------------------------------------------------------|
G|----------------------------------------------------------------|
D|4-------4-------4-------4-------9-------9-------9-------9-------|
A|4-------4-------4-------4-------9-------9-------9-------9-------|
E|2-------2-------2-------2-------7-------7-------7-------7-------|

e|----------------------------------------------------------------|
B|----------------------------------------------------------------|
G|----------------------------------------------------------------|
D|4-------4-------4-------4-------9-------9-------9-------9-------|
A|4-------4-------4-------4-------9-------9-------9-------9-------|
E|2-------2-------2-------2-------7-------7-------7-------7-------|

e|----------------------------------------------------------------|
B|----------------------------------------------------------------|
G|----------------------------------------------------------------|
D|4---------------------------------------------------------------|
A|4---------------------------------------------------------------|
E|2---------------------------------------------------------------|


************************************

| /  slide up
| \  slide down
| h  hammer-on
| p  pull-off
| ~  vibrato
| +  harmonic
| x  Mute note
| PM palm mute
| b  bend
| r  release

************************************
Suggest correction
comments
print report bad tab
2 comments total.
0 reply
Infant 440 wrote on February 6 2007, 04:36 pm

Your tab sucks!

0 reply
tommykn0cker 10 wrote on November 27 2007, 11:48 am

nice work, but (at least, hehe) one little mistake
in the chorus (calles VERSE in your tab) the second chord is actually a Db chord with an Ab in the bass, so you play


4
6
6
6
4
4

or

4
6
4
6
4
4

or simply a powerchord 446000 instead of your 466000
hope youll correct it

guest
You may want to rate the tab now too:
select rating
Wanna post a correction for this tab? Suggest correction