Oops, an error
Loading. Please wait.

Neutron Star Collision bass

version 2
version 2

Whole song

Interactive

by Muse
7,876 views 6 this week
1 commentread comment
1 2 3 4 5
x 3
add to favorites
×
Save as Personal and add changes to this tab that will be seen only by you. Learn more ›
×
You can save this tab as Personal to edit and correct it or add notes. All changes will be seen only by you. Learn more »
launch autoscroll
font size
0
reset
guitar tuner
edit
Autoscroll
slow
fast
+/-
esc
set tempo
stop
Author
Difficulty
MUSE - Neutron Star Collision
Album - Neutron Star Collision [Love Is Forever]

Tabbed by: Martin Kjeld Pedersen
YouTube account : http://www.youtube.com/user/Marped16

TUNING: E-A-D-G / Standard

Info: Tabbed by ear. The bass is played with a little big of distortion/muff. 
Either way sounds great.
Remember to slide for maximum awsomeness!

r = let it ring for just a sec

____________________________________

Verse 1 - No bass!


First chorus:
 at 0:36 	
 ".. Our love.."
 G|-----------------------------------------------------|
 D|-----------------------------------------------------|
 A|---------------------------4---4-4r-----8---8-8r-----| x2
 E|---2---2-2r-----5---5-5r-----------------------------|

 G|-----------------------------------------------------|
 D|-----------------------------------------------------|
 A|---------------------------4---4-4-4-6-8---8-8-------| x1
 E|---2---2-2-2-4-5---5-5-------------------------------|

 G|-----------------------------------------------------|
 D|-----------------------------------------------------|
 A|---------------------------4---44r-------------------| x1
 E|---2---2-2-2-4-5---5-5-------------------------------| 

            
Verse 2. ###Gallopping rythm###, a bit like the rythm in Knights of Cydonia.
at 1:09

 G|----------------------------------------|
 D|----------------------------------------|
 A|-4-44-4-44-4-44-4-44--8-88-8-88-8-88-88-|        
 E|----------------------------------------|        

 G|----------------------------------------|        
 D|-4-44-4-44-4-44-4-44--6-66-6-66-6-66-66-|        
 A|----------------------------------------|
 E|----------------------------------------|

Pre-Chorus. ###Gallopping rythm### Same idéa as above. Only typing single notes 
down here but same rythm as verse 2.

at 1:24

 G|----------------------------------------------------|
 D|----------------------------------------------------|
 A|---------------------------------8-----9------------|
 E|---4-----5-----6-----8-----9-----------------4------|

Chorus 2. ###Gallopping rythm### again, it's the same rythm as in the verse and pre-chorus
at 1:39

 G|------------------------------------------|
 D|------------------------------------------|----------|
 A|------------------------------------------|          |
 E|-2-22-2-22-2-22-2-2-4-5-55-5-55-5-55-5----|          |
                                                        | x4
 G|------------------------------------------|          |
 D|------------------------------------------|          |
 A|-4-44-4-44-4-44-4-4-6-8-88-8-88-8-88-8----|----------| 
 E|------------------------------------------|


Guitar-solo. ###Gallopping rythm### This is the same as whats being played at verse 2.
at 2:09
 G|---------------------------------------------|
 D|---------------------------------------------|--------|
 A|---4---4-4----4---4-4----4---4-4----4---4-4--|        |
 E|---------------------------------------------|        |
                                                         |
 G|---------------------------------------------|        |
 D|---------------------------------------------|        |
 A|---8---8-8----8---8-8----8---8-8----8-8------|        |
´E|---------------------------------------------|        | 
                                                         | x2
 G|---------------------------------------------|        | 
 D|---4---4-4----4---4-4----4---4-4----4---4-4--|        |
 A|---------------------------------------------|        |
 E|---------------------------------------------|        |
                                                         |
 G|---------------------------------------------|        |
 D|---6---6-6----6---6-6----6---6-6----6-6------|        |
 A|---------------------------------------------|--------|
 E|---------------------------------------------|

Pre-chorus one more time ###Gallopping rythm### 
at 2:24
 G|----------------------------------------------------|
 D|----------------------------------------------------|
 A|---------------------------------8-----9------------| x1
 E|---4-----5-----6-----8-----9-----------------4------|

Chorus for the last time. ###NO more gallopping rythm###
2:39

 G|----------------------------------------------------|
 D|----------------------------------------------------|
 A|--------------------444444-4-688888888--------------|
 E|--222222-2-455555555--------------------------------|


Compiled with TabPlayer :: http://www.simoneperandini.com/tabplayer/

Suggest correction
Creating personal tab
Creating personal tab
You can edit any tab online and save it as your Personal.

You can edit, replace or remove any tab part or add personal notes – all changes will be seen only by you.

Personal tabs can be accessed anytime from any device, even offline.
Learn more »
Give kudos to tab author, rate the tab!
1 2 3 4 5
comments
print report bad tab
1 comment total.
0 reply
zakarai 201 May 21, 2010 05:52 AM

Great tab, well done!

guest
You may want to rate the tab now too:
select rating
Wanna post a correction for this tab? Suggest correction