Oops, an error
Loading. Please wait.

Neutron Star Collision Tab

version 2
version 2
by Muse
16,121 views 1 this week
5 commentsread comments
1 2 3 4 5
accurate
x 4
add to favorites
launch autoscroll
font size
0
reset
how to read this tab
guitar tuner
Tab Pro tools
  • play this tab
  • loop segment
  • change instrument
  • show fretboard
  • metronome
×
Best way to learn
"Neutron Star Collision"
Autoscroll
slow
fast
+/-
esc
set tempo
stop
Contributor
Difficulty
novice
-------------------------------------------------------------------------------
                             neutron Star - Muse
-------------------------------------------------------------------------------
Tabbed by: Zakaraii
Email: g1994@hotmail.co.uk

Tuning: Standard E,A,D,G,B,E


Intro

e|---------------------------------------------------------------------------|
B|---------------------------------------------------------------------------|
G|---------------------------------------------------------------------------|
D|----------------------------------------------------------6~~--------------|
A|-------------------4-----4--2------------4------6--7-----------------------|
E|--2------4--5------------------5-------------------------------------------|

Verse 1

e|---------------------------------------------------------------------------|
B|---------------------------------------------------------------------------|
G|---------------------------------------------------------------------------|
D|--6--6-6-6--6-6-6--6-6-6--6-6-10--10-10-10--10-10-10--10-10-10--10-10-11---||
A|--4--4-4-4--4-4-4--4-4-4--4-4--8---8--8--8---8--8--8---8--8--8---8--8--9---||
E|---------------------------------------------------------------------------||
Pm ************************************************************************   |
                                                                              |
Give it that gallope effect in the 3 beat  (quaver quaver crotcher so on...)  | x2
e|---------------------------------------------------------------------------||
B|---------------------------------------------------------------------------||
G|---------------------------------------------------------------------------||
D|11-11-11--11-11-11--11-11-11--11-11-13--13-13-13--13-13-13--13-13-13--13-13|
A|-9--9--9---9--9--9---9--9--9---9--9-11--11-11-11--11-11-11--11-11-11--11-11|
E|---------------------------------------------------------------------------|
Pm *************************************************************************

e|---------------------------------------------------------------------------|
B|---------------------------------------------------------------------------|
G|---------------------------------------------------------------------------|
D|---------------------------------------------------------------------------|
A|--6--6-6-6--6-6-6--6-6-6--6-6-7--7-7-7--7-7-7--7-7-7--7-7-8--8-8-8--8-8-8--|
E|--4--4-4-4--4-4-4--4-4-4--4-4-5--5-5-5--5-5-5--5-5-5--5-5-6--6-6-6--6-6-6--|
Pm *************************************************************************

e|---------------------------------------------------------------------------|
B|---------------------------------------------------------------------------|
G|---------------------------------------------------------------------------|
D|-------------5--5-5-5--5-5-5--5-5-5--5-5-6--6-6-6--6-6-6--6-6-6--6-6-6-----|
A|--8-8-8--8-8-3--3-3-3--3-3-3--3-3-3--3-3-4--4-4-4--4-4-4--4-4-4--4-4-4-----|
E|--6-6-6--6-6---------------------------------------------------------------|
Pm *************************************************************************

e|---------------------------------------------------------------------------|
B|---------------------------------------------------------------------------|
G|---------------------------------------------------------------------------|
D|-10--10-10-10--10-10-10--10-10-10--10-10-11--------------------------------|
A|--8---8--8--8---8--8--8---8--8--8---8--8--9--------------------------------|
E|---------------------------------------------------------------------------|
Pm *************************************************************************

e|---------------------------------------------------------------------------|
B|---------------------------------------------------------------------------|
G|---------------------------------------------------------------------------|
D|11-11-11--11-11-11--11-11-11--11-11-13--13-13-13--13-13-13--13-13-13--13-13|
A|-9--9--9---9--9--9---9--9--9---9--9-11--11-11-11--11-11-11--11-11-11--11-11|
E|---------------------------------------------------------------------------|
Pm *************************************************************************

Chorus

e|-------------------------------------------------------------------------|
B|-------------------------------------------------------------------------|
G|---------------------------------6-6-6-6-6-6-6-8-10-10-10-10-10-10-10-10-|
D|-4-4-4-4-4-4-4-6-7-7-7-7-7-7-7-7-6-6-6-6-6-6-6-x-x--x--x--x--x--x--x--x--| x3
A|-x-x-x-x-x-x-x-x-x-x-x-x-x-x-x-x-4-4-4-4-4-4-4-6-8--8--8--8--8--8--8--8--|
E|-2-2-2-2-2-2-2-4-5-5-5-5-5-5-5-5-----------------------------------------|
 

e|-------------------------------------------------------------------------|
B|-------------------------------------------------------------------------|
G|---------------------------------6----6--6-------------------------------|
D|-4-4-4-4-4-4-4-6-7-7-7-7-7-7-7-7-6----6--6-------------------------------|
A|-x-x-x-x-x-x-x-x-x-x-x-x-x-x-x-x-4----4--4-------------------------------|
E|-2-2-2-2-2-2-2-4-5-5-5-5-5-5-5-5-----------------------------------------|
                                           *
                                     Let ring until the end of the bar

Solo (Use of flanger, small delay and alot of vibrato)
The rythm guitar under does exactly the same as verse 1 in the first "2" bars x2

e|--------------------------------------------------------------------------|
B|--14~~--------13~~-----9~~----11~~---9~--7~--9~-----7~~-------------------|
G|--------------------------------------------------------------------------|
D|--------------------------------------------------------------------------|
A|--------------------------------------------------------------------------|
E|--------------------------------------------------------------------------|

e|--------9--11--13---13-14-13--11--9--8--9--11---13b------------------------|
B|--6--9-------------------------------------------------13~-----------------|
G|---------------------------------------------------------------------------|
D|---------------------------------------------------------------------------|
A|---------------------------------------------------------------------------|
E|---------------------------------------------------------------------------|

Verse 2


e|---------------------------------------------------------------------------|
B|---------------------------------------------------------------------------|
G|---------------------------------------------------------------------------|
D|---------------------------------------------------------------------------|
A|--6--6-6-6--6-6-6--6-6-6--6-6-7--7-7-7--7-7-7--7-7-7--7-7-8--8-8-8--8-8-8--|
E|--4--4-4-4--4-4-4--4-4-4--4-4-5--5-5-5--5-5-5--5-5-5--5-5-6--6-6-6--6-6-6--|
Pm *************************************************************************

e|---------------------------------------------------------------------------|
B|---------------------------------------------------------------------------|
G|---------------------------------------------------------------------------|
D|-------------5--5-5-5--5-5-5--5-5-5--5-5-6--6-6-6--6-6-6--6-6-6--6-6-6-----|
A|--8-8-8--8-8-3--3-3-3--3-3-3--3-3-3--3-3-4--4-4-4--4-4-4--4-4-4--4-4-4-----|
E|--6-6-6--6-6---------------------------------------------------------------|
Pm *************************************************************************

e|---------------------------------------------------------------------------|
B|---------------------------------------------------------------------------|
G|---------------------------------------------------------------------------|
D|-10--10-10-10--10-10-10--10-10-10--10-10-11--------------------------------|
A|--8---8--8--8---8--8--8---8--8--8---8--8--9--------------------------------|
E|---------------------------------------------------------------------------|
Pm *************************************************************************

e|---------------------------------------------------------------------------|
B|---------------------------------------------------------------------------|
G|---------------------------------------------------------------------------|
D|11-11-11--11-11-11--11-11-11--11-11-13--13-13-13--13-13-13--13-13-13--13-13|
A|-9--9--9---9--9--9---9--9--9---9--9-11--11-11-11--11-11-11--11-11-11--11-11|
E|---------------------------------------------------------------------------|
Pm *************************************************************************


Chorus

e|-------------------------------------------------------------------------|
B|-------------------------------------------------------------------------|
G|---------------------------------6-6-6-6-6-6-6-8-10-10-10-10-10-10-10-10-|
D|-4-4-4-4-4-4-4-6-7-7-7-7-7-7-7-7-6-6-6-6-6-6-6-x-x--x--x--x--x--x--x--x--| x3
A|-x-x-x-x-x-x-x-x-x-x-x-x-x-x-x-x-4-4-4-4-4-4-4-6-8--8--8--8--8--8--8--8--|
E|-2-2-2-2-2-2-2-4-5-5-5-5-5-5-5-5-----------------------------------------|
 

e|-------------------------------------------------------------------------|
B|-------------------------------------------------------------------------|
G|---------------------------------6----6--6-------------------------------|
D|-4-4-4-4-4-4-4-6-7-7-7-7-7-7-7-7-6----6--6-------------------------------|
A|-x-x-x-x-x-x-x-x-x-x-x-x-x-x-x-x-4----4--4-------------------------------|
E|-2-2-2-2-2-2-2-4-5-5-5-5-5-5-5-5-----------------------------------------|


************************************

| /   slide up
| \   slide down
| h   hammer-on
| p   pull-off
| ~   vibrato
| +   harmonic
| x   Mute note
| b   Bend
| pb  Pre-bend
| br  Bend release
| pbr Pre-bend release
| brb Bend release bend

************************************
comments
print report bad tab
5 comments total. Showing first comments.
+1 reply
friskymuffin14 wrote on May 21 2010, 02:34 pm

I think the solo sounds more like:


e|---------------------------------------------------------|
B|--14~~-------13~~-----9~~----11~~---9~--7~--6---9~---7~--|
G|---------------------------------------------------------|
D|---------------------------------------------------------|
A|---------------------------------------------------------|
E|---------------------------------------------------------|

e|--------9--11--13~~--14--13--11--9--8--9--11---13b-------|
B|--6--9------------------------------------------------9~-|
G|---------------------------------------------------------|
D|---------------------------------------------------------|
A|---------------------------------------------------------|
E|---------------------------------------------------------|


Only a couple of minor changes, but this sounds closer to me.

Awesome tab overall though, 5* :)

0 reply
zakarai wrote on May 22 2010, 09:29 am

I listened to the solo again and relised mines is wrong. This is how it should sound. If you listen with good headphones fairly loud, you will hear it.

e|--------------------------------------------------------------------------|
B|--14~-14~-14~-14~--13~-13~--9~~--9/-11~~--9~--7~--9~-----7~~------------|
G|--------------------------------------------------------------------------|
D|--------------------------------------------------------------------------|
A|--------------------------------------------------------------------------|
E|--------------------------------------------------------------------------|

e|--------9--11--13---13-14-13--11--9--8--9--11---13b------------------------|
B|--6--9-------------------------------------------------13~--------------|
G|---------------------------------------------------------------------------|
D|---------------------------------------------------------------------------|
A|---------------------------------------------------------------------------|
E|---------------------------------------------------------------------------|

0 reply
zakarai wrote on May 22 2010, 10:25 am

And the 13 suppose to be on G string or 9 on the B

I want to post or [tab]
guest
You may want to rate the tab now too:
select rating
Please do not post tabs as comments. Select "correction" instead!