Oops, an error
Loading. Please wait.
We have an official New Born tab made by UG professional guitarists. Check out the tab »
×
by Muse
4,421 views 3 this week
3 commentsread comments
1 2 3 4 5
x 4
add to favorites
×
Save as Personal and add changes to this tab that will be seen only by you. Learn more ›
×
You can save this tab as Personal to edit and correct it or add notes. All changes will be seen only by you. Learn more »
launch autoscroll
font size
0
reset
guitar tuner
backing track
0:00
0:00
edit
Autoscroll
slow
fast
+/-
esc
set tempo
stop
You're pretty much playing 8th notes for the entire song except for 

Verse (bass comes in after the 1st four measures)
G|---9---|
D|----7-9|  x8
A|-7-----|  
D|-------|
       
End-Verse
G|--9-------9-------5-------5-------4------4-------8-------8-----|
D|----7-9-----7-9-----3-5-----3-5-----4-5----4-5-----7-9-----7-9-|
A|7-------7-------3-------3-------2-------2------6-------6-------|
D|---------------------------------------------------------------|

Repeat the Verse/End-Verse until the guitar solo.

End of Guitar Solo
G|--------------------------------|
D|--------------------------------|
A|33333333111111112222222222222222|
D|--------------------------------|

Breakdown
G|----------------------------------------------------------------------|
D|----------------------------------------------------------------------|
A|--------------------------------------------------------------2-2-2-2-|
D|-2-2-2-2-5-2-5-6-7-7-7-7-10-7-10-11-12-0-0-12-0-0-3-4-5-5-5-5---------|

G|--------------------------------|
D|--------------------------------|
A|33333333111111112222222222222222|
D|--------------------------------|

Chorus                        (make up your own variations with the octaves)
G---------------------------------5-------3-------4-------4---|
D-------------------------------------------------------------|
A--------000-3--555--------2--3333-3331111-1112222-2222222-222|
D-222-5-------------4--555------------------------------------|

            
            
Suggest correction
Creating personal tab
Creating personal tab
You can edit any tab online and save it as your Personal.

You can edit, replace or remove any tab part or add personal notes – all changes will be seen only by you.

Personal tabs can be accessed anytime from any device, even offline.
Learn more »
comments
print report bad tab
3 comments total.
0 reply
<<Carnage>> 31 Oct 06, 2008 12:57 PM

Gr8 tab mate. The verse is a bitch to play repetitively lol

0 reply
4useless 2,618 Dec 23, 2008 10:38 PM

everything's great exept chorus.

guest
You may want to rate the tab now too:
select rating
Wanna post a correction for this tab? Suggest correction