Oops, an error
Loading. Please wait.

New Kind Of Kick Bass

version 1
version 1

Whole song

  • This tab is based on the studio version of Muse's ... Show more

Interactive

by Muse
955 views 18 this week
no commentswrite comment
1 2 3 4 5
x 4
add to favorites
launch autoscroll
font size
0
reset
guitar tuner
backing track
0:00
0:00
Autoscroll
slow
fast
+/-
esc
set tempo
stop
Author
Difficulty
novice
[Verse 1]

G|------------------------------------------------------------|
D|-7-7-7-9~----9--7-7-7-9~----9--7-7-7-9~----9--7-7-7-9~----9-|
A|------------------------------------------------------------|
E|------------------------------------------------------------|

G|-9-9-9-11~---11-9-9-9-11~---11-9-9-9-11~---11-9-9-9-11~---11-|
D|-7-7-7-9~----9--7-7-7-9~----9--7-7-7-9~----9--7-7-7-9~----9--|
A|-------------------------------------------------------------|
E|-------------------------------------------------------------|

[Chorus]

G|-----------------------------------------------------------------|
D|-7-7-7-9~--------7-7-7-9~--------7-7-7-9~--------7-7-7-9~--------|
A|----------2(x12)----------2(x12)----------2(x12)----------2(x16)-|
E|-----------------------------------------------------------------|

G|----------------------------------------|
D|----------------------------------------|
A|-5-7-7-7-5-7-7-7-5-7-7-7-5-7-7-7-5------|
E|-----------------------------------7~/\-|

G|--------------------------------------------------------------|
D|--------------------------------------------------------------|
A|-5-7-7-7-5-7-7-7-5-7-7-7-5-7-7-7-8-8-9-9-9-9-9-9-9-9-9-9-9-9/-|
E|--------------------------------------------------------------|

[Verse 2]

G|------------------------------------------------------------|
D|-7-7-7-9~----9--7-7-7-9~----9--7-7-7-9~----9--7-7-7-9~----9-|
A|------------------------------------------------------------|
E|------------------------------------------------------------|

G|-9-9-9-11~---11-9-9-9-11~---11-9-9-9-11~---11-9-9-9-11~---11-|
D|-7-7-7-9~----9--7-7-7-9~----9--7-7-7-9~----9--7-7-7-9~----9--|
A|-------------------------------------------------------------|
E|-------------------------------------------------------------|

[Chorus]

G|-----------------------------------------------------------------|
D|-7-7-7-9~--------7-7-7-9~--------7-7-7-9~--------7-7-7-9~--------|
A|----------2(x12)----------2(x12)----------2(x12)----------2(x16)-|
E|-----------------------------------------------------------------|

G|----------------------------------------|
D|----------------------------------------|
A|-5-7-7-7-5-7-7-7-5-7-7-7-5-7-7-7-5------|
E|-----------------------------------7~/\-|

G|--------------------------------------------------------------|
D|--------------------------------------------------------------|
A|-5-7-7-7-5-7-7-7-5-7-7-7-5-7-7-7-8-8-9-9-9-9-9-9-9-9-9-9-9-9/-|
E|--------------------------------------------------------------|

[Outro]

G|----------------------------------------------------------------------------|
D|-7-7-7-9~--------7-7-7-9~--------7-7-7-9~---------7-7-7-9~---------7-7-7----|
A|----------2(x12)----------2(x12)----------2-2-2-2----------2-2-2-2-------2~-|
E|----------------------------------------------------------------------------|
Suggest correction
comments
print report bad tab
guest
You may want to rate the tab now too:
select rating
Wanna post a correction for this tab? Suggest correction