Oops, an error
Loading. Please wait.

New Kind Of Kick Tab

version 1
version 1

Whole song

  • This is the tab for Muse's latest track A New kind of kick.

Interactive

by Muse
523 views 66 this week
no commentswrite comment
1 2 3 4 5
x 5
add to favorites
launch autoscroll
font size
0
reset
how to read this tab
guitar tuner
Autoscroll
slow
fast
+/-
esc
set tempo
stop
Help us to improve Ultimate-Guitar.com Take our survey!
×
Author
Difficulty
intermediate
About this tab version
This is the tab for Muse's latest track A New kind of kick. Was this info helpful? Yes No
Muse - NEW KIND OF KICK
www.youtube.com/user/sevenblack07

    (IMPORTANT)
TUNING  -  B A D G B E

Tune your low E string down to Drop B tuning
(it's the same way you go to Drop D tuning, but 2 steps further Drop D to Drop C to Drop B)

E|---------------------------------------------------------------------|
B|---------------------------------------------------------------------|
G|-----------------------------------------------------(play last part)|
D|-----------------------------------------------------(multiple times)|
A|---------------------------------------------------------------------|
B|--10-10-10-12----12-10-10-10-12----12-10-10-10-12----10-10-10-12-----|

E|------------------------------------------------------------------|
B|------------------------------------------------------------------|
G|------------------------------------------------------------------|
D|------------------------------------------------------------------|
A|-0-0-0-2s-------------------------0-0-0-2s------------------------|
B|----------0-0-0-0-0-0-0-0-0-0-0-0----------0-0-0-0-0-0-0-0-0-0-0-0|

E|------------------------------------------------------------------|
B|------------------------------------------------------------------|
G|------------------------------------------------------------------|
D|------------------------------------------------------------------|
A|------------------------------------------------------------------|
B|-3-5-5-3-5-5-3-5-5-3-5-5bd-3-0----3-5-5-3-5-5-3-5-5-3-5-5-6-7-7-7-|

E|------------------------------------------------------------------|
B|------------------------------------------------------------------|
G|------------------------------------------------------------------|
D|------------------------------------------------------------------|
A|------------------------------------------------------------------|
B|--10-10-10-12s-0-10-10-10-12s-0-10-10-10-0------------------------|
Suggest correction
comments
print report bad tab
guest
You may want to rate the tab now too:
select rating
Wanna post a correction for this tab? Suggest correction