Oops, an error
Loading. Please wait.
We have an official Panic Station tab made by UG professional guitarists. Check out the tab »
×
by Muse
22,567 views 27 this week
no commentswrite comment
1 2 3 4 5
x 20
add to favorites
×
Save as Personal and add changes to this tab that will be seen only by you. Learn more ›
×
You can save this tab as Personal to edit and correct it or add notes. All changes will be seen only by you. Learn more »
launch autoscroll
font size
0
reset
guitar tuner
backing track
0:00
0:00
edit
Autoscroll
slow
fast
+/-
esc
set tempo
stop
Author
Difficulty
Standard Tuning

If you want to see this tabbed played out, check out my youtube cover of this song

   http://www.youtube.com/watch?v=I6NAaV4kZ3Y

Check out my Youtube Channel for over 100 other bass covers!

   http://www.youtube.com/user/chrisistheazn



Intro

G|-----------------------------------------------------------------------------------------|
D|-----------------------------------------------------------------------------------------|
A|-----------------------------------------------------------------------------------------|
E|-12/-------------------------------------------------------------------------------------|

G|-------------7-/9------------19-19-19-19-------------7-/9------------19-19-19-19---------|
D|-------------7-/9------------19-19-19-19-------------7-/9------------19-19-19-19---------|
A|-----------------------------------------------------------------------------------------|
E|-0---0---0---------0-0-0-0---------------0---0---0---------0-0-0-0-----------------------|

Verse 1

G|-------------7-/9------------19-19-19-19-------------7-/9------------19-19-19-19---------|
D|-------------7-/9------------19-19-19-19-------------7-/9------------19-19-19-19---------|
A|-----------------------------------------------------------------------------------------|
E|-0---0---0---------0-0-0-0---------------0---0---0---------0-0-0-0-----------------------|

G|-------------13-/12------------19-19-19-19-------------7-/9-------------19\--------------|
D|-------------13-/12------------19-19-19-19-------------7-/9-------------19\--------------|
A|-0---0---0-------------------------------------------------------------------------------|
E|---------------------3-3-3-3---------------0---0---0---------0-0-0-0---------------------|

Chorus 1

G|-------------------------------------------------------------7---8-----------------------|
D|---2---2---2---4---5---5---5---6---7---7---7---9---10---10-------------------------------|
A|-----------------------------------------------------------5---6-------------------------|
E|-0---0---0---2---3---3---3---4---5---5---5---7---8----8----------------------------------|

G|-----------------------------------------------------------------------------7\----------|
D|---2---2---2---4---5---5---5---6---7---7---7---9-----------------------------7\----------|
A|-----------------------------------------------------------------------------------------|
E|-0---0---0---2---3---3---3---4---5---5---5---7---8---------------------------------------|

After-Chorus

G|-------------7-/9------------19-19-19-19-------------7-/9------------19-19-19-19---------|
D|-------------7-/9------------19-19-19-19-------------7-/9------------19-19-19-19---------|
A|-----------------------------------------------------------------------------------------|
E|-0---0---0---------0-0-0-0---------------0---0---0---------0-0-0-0-----------------------|

Verse 2

G|-------------7-/9------------19-19-19-19-------------7-/9------------19-19-19-19---------|
D|-------------7-/9------------19-19-19-19-------------7-/9------------19-19-19-19---------|
A|-----------------------------------------------------------------------------------------|
E|-0---0---0---------0-0-0-0---------------0---0---0---------0-0-0-0-----------------------|

G|-------------13-/12------------19-19-19-19-------------7-/9-------------19-19------------|
D|-------------13-/12------------19-19-19-19-------------7-/9-------------19-19------------|
A|-0---0---0-------------------------------------------------------------------------------|
E|---------------------3-3-3-3---------------0---0---0---------0-0-0-0----------15\--------|

Chorus 2

   Same as Chorus 1

Bridge/Solo

G|-------------7-/9------------19-19-19-19-------------7-/9------------19-19-19-19---------|
D|-------------7-/9------------19-19-19-19-------------7-/9------------19-19-19-19---------|
A|-----------------------------------------------------------------------------------------|
E|-0---0---0---------0-0-0-0---------------0---0---0---------0-0-0-0-----------------------|

G|-------------13-/12------------19-19-19-19-------------7-/9-------------19\--------------|
D|-------------13-/12------------19-19-19-19-------------7-/9-------------19\--------------|
A|-0---0---0-------------------------------------------------------------------------------|
E|---------------------3-3-3-3---------------0---0---0---------0-0-0-0---------------------|

G|-------------------------------------------------------------7---8-----------------------|
D|---2---2---2---4---5---5---5---6---7---7---7---9---10---10-------------------------------|
A|-----------------------------------------------------------5---6-------------------------| x2
E|-0---0---0---2---3---3---3---4---5---5---5---7---8----8----------------------------------|

Chorus 3

G|-------------------------------------------------------------7---8-----------------------|
D|---2---2---2---4---5---5---5---6---7---7---7---9---10---10-------------------------------|
A|-----------------------------------------------------------5---6-------------------------| x3
E|-0---0---0---2---3---3---3---4---5---5---5---7---8----8----------------------------------|

G|-----------------------------------------------------------------------------7\----------|
D|---2---2---2---4---5---5---5---6---7---7---7---9-----------------------------7\----------|
A|-----------------------------------------------------------------------------------------|
E|-0---0---0---2---3---3---3---4---5---5---5---7---8---------------------------------------|

Outro

G|-------------7-/9------------19-19-19-19-------------7-/9------------19-19-19-19---------|
D|-------------7-/9------------19-19-19-19-------------7-/9------------19-19-19-19---------|
A|-----------------------------------------------------------------------------------------|
E|-0---0---0---------0-0-0-0---------------0---0---0---------0-0-0-0-----------------------|


| /  slide up
| \  slide down
| h  hammer-on
| p  pull-off
| ~  vibrato
| +  harmonic
| x  Mute note

            
            
Suggest correction
Creating personal tab
Creating personal tab
You can edit any tab online and save it as your Personal.

You can edit, replace or remove any tab part or add personal notes – all changes will be seen only by you.

Personal tabs can be accessed anytime from any device, even offline.
Learn more »
comments
print report bad tab
guest
You may want to rate the tab now too:
select rating
Wanna post a correction for this tab? Suggest correction