Oops, an error
Loading. Please wait.

Pink Ego Box bass

version 1
version 1

Whole song

Interactive

by Muse
2,213 views 3 this week
1 commentread comment
1 2 3 4 5
x 4
add to favorites
×
Save as Personal and add changes to this tab that will be seen only by you. Learn more ›
×
You can save this tab as Personal to edit and correct it or add notes. All changes will be seen only by you. Learn more »
launch autoscroll
font size
0
reset
guitar tuner
edit
Autoscroll
slow
fast
+/-
esc
set tempo
stop
Author
Difficulty
-------------------------------------------------------------------------------
			     PINK EGO BOX - Muse
-------------------------------------------------------------------------------

Tabbed By : Flávia
e-mail: twiggy_tuggy@gmail.com

Intro:

G|-----------------------------------------------------------------------------|
D|--------11-11------11-11------11-11------11-11-------------------------------|
A|-9-9-----------9-9---------9-9---------9-9-----------------------------------|
E|-----------------------------------------------------------------------------|

G|---------------------------------------------------------------------------|
D|------10-10------10-10------10-10------10-10-------------------------------|
A|-8-8---------8-8---------8-8---------8-8-----------------------------------|
E|---------------------------------------------------------------------------|

G|-----------------------------------------------------------------------------|
D|--------11-11------11-11------11-11------11-11-------------------------------|
A|-9-9-----------9-9---------9-9---------9-9-----------------------------------|
E|-----------------------------------------------------------------------------|

G|-----------------------------------------------------------------------------|
D|------10-10------10-10-------------------------------------------------------|
A|-8-8---------8-8---------8 ~ ------------------------------------------------|
E|-----------------------------------------------------------------------------|

Verse (3 times)
G|------------------------------------------------------------------------------------------------------|
D|------------------------------------------------------------------------------------------------------|
A|-----------------------------------------5-5----------------------------------------------------------|
E|-0-0----------4-4-------------0-0----------------0-0----4-4-4-4-4-4-4-4-2-2---2-2----------------0-0--|
“It’s gonna be okay. Can’t afford another day with 50 bytes per second”

Right before chorus, play like this:
G|---------------------------------------------------------------------------------------|
D|---------------------------------------------------------------------------------------|
A|-----------------------------------------5-5-------------------------------------------|
E|-0-0----------4-4-------------0-0----------------0-0----4-4-4-4-4-4-4-4-2-2-2-2-2-2----|
“I’ve never seen your face, I’ve never heard your voice but I think I like it”

Chorus:
G|-----------------------------------------------------------------------------|
D|-----------------------------------------------------------------------------|
A|-5-5-5-5--5-5-5-5-5-5-5-5-5-5------------------------------------------------|
E|----------------------------------------0-2-3--------------------------------|
“When you instant message me with a promise”

G|-----------------------------------------------------------------------------|
D|-----------------------------------------------------------------------------|
A|------------------------------7 ~--------------------------------------------|
E|-3-3-3-3-3--3-3-3------------------------------------------------------------|
“And I can feel it, I can tell you’re gonna be…”

G|-----------------------------------------------------------------------------|
D|--------11-11------11-11------11-11------11-11-------------------------------|
A|-9-9-----------9-9---------9-9---------9-9-----------------------------------|
E|-----------------------------------------------------------------------------|

G|-----------------------------------------------------------------------------|
D|------10-10------10-10-------------------------------------------------------|
A|-8-8---------8-8---------8 ~ ------------------------------------------------|
E|-----------------------------------------------------------------------------|
 “just like me”

G|------------------------------------------------------------------------------------------------------|
D|------------------------------------------------------------------------------------------------------|
A|-----------------------------------------5-5----------------------------------------------------------|
E|-0-0----------4-4-------------0-0----------------0-0----4-4-4-4-4-4-4-4-2-2---2-2----------------0-0--|
“My eyes are gonna astray. My heart is feeling pain at 50 beats per second”

G|---------------------------------------------------------------------------------------|
D|---------------------------------------------------------------------------------------|
A|-----------------------------------------5-5-------------------------------------------|
E|-0-0----------4-4-------------0-0----------------0-0----4-4-4-4-4-4-4-4-2-2-2-2-2-2----|
“I’ve never seen your eyes, I’ve never heard your lies but I think I like it”

Chorus:
G|-----------------------------------------------------------------------------|
D|-----------------------------------------------------------------------------|
A|-5-5-5-5--5-5-5-5-5-5-5-5-5-5------------------------------------------------|
E|----------------------------------------0-2-3--------------------------------|
“When you instant message me with a promise”

G|-----------------------------------------------------------------------------|
D|-----------------------------------------------------------------------------|
A|------------------------------7 ~--------------------------------------------|
E|-3-3-3-3-3--3-3-3------------------------------------------------------------|
“And I can feel it, I can tell you’re gonna be…”

G|-----------------------------------------------------------------------------|
D|--------11-11------11-11------11-11------11-11-------------------------------|
A|-9-9-----------9-9---------9-9---------9-9-----------------------------------|
E|-----------------------------------------------------------------------------|

G|---------------------------------------------------------------------------|
D|------10-10------10-10------10-10------10-10-------------------------------|
A|-8-8---------8-8---------8-8---------8-8-----------------------------------|
E|---------------------------------------------------------------------------|

G|-----------------------------------------------------------------------------|
D|--------11-11------11-11------11-11------11-11-------------------------------|
A|-9-9-----------9-9---------9-9---------9-9-----------------------------------|
E|-----------------------------------------------------------------------------|

G|-----------------------------------------------------------------------------|
D|------10-10------10-10-------------------------------------------------------|
A|-8-8---------8-8---------8 ~ ------------------------------------------------|
E|-----------------------------------------------------------------------------|
 “just like me”

G|------------------------------------------------------------------------------|
D|--4------4------4------4------4------4-------4--------------------------------|
A|-----4------4------4-------4------4------4-------4----------------------------|
E|------------------------------------------------------------------------------|

G|---------------------------------------------------------------------------|
D|---------------4-4----------------------4-4--------------------------------|
A|--------4-4---------4-4----------4-4--------4-4----------------------------| - 4x
E|--2-2-----------------------2-2--------------------------------------------|

G|-------------------------------------------------------------------------------|
D|-------------------------------------------------------------------------------|
A|------------------------------------------0-2-4---------------------------|----| 4x
E|--2-1-0-1-2-1-0-1-2-1-0-1-2-1-0-1----------------------------------------------|
“You turn, you turn on me”

            
            
Suggest correction
Creating personal tab
Creating personal tab
You can edit any tab online and save it as your Personal.

You can edit, replace or remove any tab part or add personal notes – all changes will be seen only by you.

Personal tabs can be accessed anytime from any device, even offline.
Learn more »
comments
print report bad tab
1 comment total.
0 reply
cm261 30 Dec 16, 2008 06:00 AM

Way off, sorry dude. More corrections needed than I feel like posting.

guest
You may want to rate the tab now too:
select rating
Wanna post a correction for this tab? Suggest correction