Oops, an error
Loading. Please wait.
We have an official Plug In Baby tab made by UG professional guitarists. Check out the tab »
×
by Muse
57,612 views 69 this week
9 commentsread comments
1 2 3 4 5
x 36
add to favorites
×
Save as Personal and add changes to this tab that will be seen only by you. Learn more ›
×
You can save this tab as Personal to edit and correct it or add notes. All changes will be seen only by you. Learn more »
launch autoscroll
font size
0
reset
how to read this tab
guitar tuner
backing track
0:00
0:00
edit
Autoscroll
slow
fast
+/-
esc
set tempo
stop
Maybe it's just me but I get bored learning songs after the intro, and so here's another 
for you

Oh yeah, standard tuning for this one (E, A, D, G, B, e)

e|---------------------------------------------------------------------|
B|-----------------------7h8p7-----------------------------7h8p7-6-7-6-|
G|-----6-----6-7---6-7-9-------9-7-6-----6-----6-7---6-7-9-------------|
D|-8-9---8-9-----9-------------------8-9---8-9-----9-------------------|
A|---------------------------------------------------------------------|
E|---------------------------------------------------------------------|

e|--------------------------------|
B|-7-----------7-9^--7----7-------|
G|---7-------7---------10---7-6-7-|
D|-----7---7----------------------|
A|-------9------------------------|
E|--------------------------------|

e|-------------------------------------|
B|-----------------------7h8p7---------|
G|-----6-----6-7---6-7-9-------9-7-6---|
D|-8-9---8-9-----9-------------------9-|
A|-------------------------------------|
E|-------------------------------------|

(submitted by Andrew Biles)

************************************

| h  Hammer-on
| p  Pull-off

************************************
Suggest correction
Creating personal tab
Creating personal tab
You can edit any tab online and save it as your Personal.

You can edit, replace or remove any tab part or add personal notes – all changes will be seen only by you.

Personal tabs can be accessed anytime from any device, even offline.
Learn more »
comments
print report bad tab
9 comments total. Showing first comments.
0 reply
sophestar 50 Nov 20, 2001 07:00 PM

this is 100% perfect

0 reply
Lemon_guitarist 30 Mar 30, 2002 07:00 PM

Um, good tab but stand. tuning is E,A,D,G,B,e not E,B,D,G,A,e

0 reply
andrewbiles 4,765 Apr 19, 2002 08:00 PM

yeah well u know what I meant!

guest
You may want to rate the tab now too:
select rating
Wanna post a correction for this tab? Suggest correction