Oops, an error
Loading. Please wait.
We have an official Plug In Baby tab made by UG professional guitarists. Check out the tab »
×

Plug In Baby ukulele

by Muse
145 views 6 this week
no commentswrite comment
1 2 3 4 5
3 more votes to show rating
add to favorites
×
Save as Personal and add changes to this tab that will be seen only by you. Learn more ›
×
You can save this tab as Personal to edit and correct it or add notes. All changes will be seen only by you. Learn more »
launch autoscroll
font size
0
reset
transpose
0
reset
simplify chords
display chords
guitar tuner
backing track
0:00
0:00
edit
Autoscroll
slow
fast
+/-
esc
set tempo
stop
Author
Strumming
There is no strumming pattern for this song yet. and get +5 IQ
Tuning: GCEA (Soprano ukulele)

135 bpm

Recommended pattern
   1   2   3   4
|--D---D--uD-u-D-u---|

[Chords]
F# 666x
G 777x
D 222x
F#dim 565x
Bm 767x
F#aug 766x
A 999x

[Symbols]
= = Tie
h, p = Hammer-on, pull-off
D = down-strum
u = up-strum

[Intro]
   F#
A|--------------------------|----------9h10p9-----------|
E|--------9=9-----9-10=10---|--9-10-12--------12-10-9---|
C|--10-11---10-11------11---|---------------------------|
G|--------------------------|---------------------------|

   G
A|--------------------------|--------9-9h10p9----9------|
E|-----9-10=10-9-10-12-p9---|--10-12----------13---13---|
C|--11------11--------------|---------------------------|
G|--------------------------|---------------------------|

   D
A|--9=9--0=0-0=0--9-11---|--h12-p11-9----9------------||
E|----10-------10--------|------------13---10-9-h10--o|| Repeat once
C|---------6-------------|---------------------------o|| from the top
G|-----------------------|----------------------------||

   F#
A|--------------------------|----------9h10p9-----------|
E|--------9=9-----9-10=10---|--9-10-12--------12-10-9---|
C|--10-11---10-11------11---|---------------------------|
G|--------------------------|---------------------------|

[Verse]
   G      I've exposed your
A|---------------------------|
E|---------------------------|
C|--11-----------------------|
G|---------------------------|

D
lies ba-
F#
by The underneath's no
G
big surprise Now it's time
D
for changing
F#
and cleansing
G
everything to forget your
D
love

[Chorus]
F#dim (x65x)
|--D-D-D-D-D-D-D-D---|

(565x)
|--D-u-D-u-D-u-D-u---|

G
My plug in baby

Bm
|--D-u-D-u-D-u-D-u---|

F#
crucifies my
G
enemies when I'm tired of giving

Bm
|--D-u-D-u-D-u-D-u---|

F#aug      F#
             Whoa
|--D-u-D-u-D-u-D-u---|

G
My plug in baby
Bm
in un-
F#
broken virgin re-
G
alities is

             A
tired of li- ving
|--D-u-D-u-D-u-D-u---|

D (x-9-10-9)
Oooh

[Intro without repeat]

[Verse 2]
G
Don't con-
D
fuse Baby you're 
F#
gonna lose your own
G
game
D
Change me
F#
Replace the
G
envying to forget your
D
love

[Chorus]

[Bridge]
F# (Alternatively, play intro riff over lyrics)
And I've seen your
G
loving Mine is
D
gone
F#
and I've been in
G
trouble Woo-
D
aahhhh

[Outro (Intro without repeat)] 

            
            
Suggest correction
Creating personal tab
Creating personal tab
You can edit any tab online and save it as your Personal.

You can edit, replace or remove any tab part or add personal notes – all changes will be seen only by you.

Personal tabs can be accessed anytime from any device, even offline.
Learn more »
Give kudos to tab author, rate the tab!
1 2 3 4 5
comments
print report bad tab
guest
You may want to rate the tab now too:
select rating
Wanna post a correction for this tab? Suggest correction