Oops, an error
Loading. Please wait.

Plug In Baby Bass Tab

version 6
by Muse
133,703 views 309 this week
8 commentsread comments
1 2 3 4 5
excellent!
x 55
add to favorites
launch autoscroll
font size
0
reset
guitar tuner
Autoscroll
slow
fast
+/-
esc
set tempo
stop
Help us to improve Ultimate-Guitar.com Take our survey!
×
Author
Difficulty
novice
----------------------------------------------------------------------------
                             Plug In Baby – Muse
----------------------------------------------------------------------------

Tuning: Standard (EADG)

[Intro]

(Bass)
     W                 W                 W                 W
G||-----------------|-----------------|-----------------|-----------------|
D||-----------------|-----------------|-----------------|-----------------|
A||-----------------|-----------------|-----------------|-----------------|
E||-----------------|-----------------|-----------------|-----------------|


     Q     E.   S  E   E   E   E      Q     E.   S  E   E   E   E   
G|--------------------------------|--------------------------------|
D|--------12------------------12--|--------12------------------12--|
A|------------------------12------|------------------------12------|
E|--10---------10-10--10----------|--10---------10-10--10----------|


    Q     E.  S E  E   E   E     Q     E.  S E  E   E   E   
G|-------11---------------11--|-------11---------------11--|
D|--------------------11------|--------------------11------|
A|--9---------9-9--9----------|--9---------9-9--9----------|
E|----------------------------|----------------------------|


     Q     E.   S  E   E   E   E      Q     E.   S  E   E   E   E   
G|--------12------------------12--|--------12------------------12--|
D|------------------------12------|------------------------12------|
A|--10---------10-10--10----------|--10---------10-10--10----------|
E|--------------------------------|--------------------------------|


     Q     E.   S  E   E   E   E      Q     E.   S  E   E   E   E   
G|--------------------------------|--------------------------------|
D|--------12------------------12--|--------12------------------12--|
A|------------------------12------|------------------------12------|
E|--10---------10-10--10----------|--10---------10-10--10----------|


    Q     E.  S E  E   E   E     Q     E.  S E  E   E   E   
G|-------11---------------11--|-------11---------------11--|
D|--------------------11------|--------------------11------|
A|--9---------9-9--9----------|--9---------9-9--9----------|
E|----------------------------|----------------------------|


[Verse 1]

(Bass)

     Q     E.   S  E   E   E   E      Q     E.   S  E   E   E   E   
G|--------12------------------12--|--------12------------------12--|
D|------------------------12------|------------------------12------|
A|--10---------10-10--10----------|--10---------10-10--10----------|
E|--------------------------------|--------------------------------|


     Q     E.   S  E   E   E   E      Q     E.   S  E   E   E   E   
G|--------------------------------|--------------------------------|
D|--------12------------------12--|--------12------------------12--|
A|------------------------12------|------------------------12------|
E|--10---------10-10--10----------|--10---------10-10--10----------|


    Q     E.  S E  E   E   E     Q     E.  S E  E   E   E   
G|-------11---------------11--|-------11---------------11--|
D|--------------------11------|--------------------11------|
A|--9---------9-9--9----------|--9---------9-9--9----------|
E|----------------------------|----------------------------|


     Q     E.   S  E   E   E   E      Q     E.   S  E   E   E   E   
G|--------12------------------12--|--------12------------------12--|
D|------------------------12------|------------------------12------|
A|--10---------10-10--10----------|--10---------10-10--10----------|
E|--------------------------------|--------------------------------|


     Q     E.   S  E   E   E   E      Q     E.   S  E   E   E   E   
G|--------------------------------|--------------------------------|
D|--------12------------------12--|--------12------------------12--|
A|------------------------12------|------------------------12------|
E|--10---------10-10--10----------|--10---------10-10--10----------|


    Q     E.  S E  E   E   E     Q     E.  S E  E   E   E   
G|-------11---------------11--|-------11---------------11--|
D|--------------------11------|--------------------11------|
A|--9---------9-9--9----------|--9---------9-9--9----------|
E|----------------------------|----------------------------|


     Q     E.   S  E   E   E   E      Q     E.   S  E   E   E   E   
G|--------12------------------12--|--------12------------------12--|
D|------------------------12------|------------------------12------|
A|--10---------10-10--10----------|--10---------10-10--10----------|
E|--------------------------------|--------------------------------|


     Q     E.   S  E   E   E   E      Q     E.   S  E   E   E   E   
G|--------------------------------|--------------------------------|
D|--------12------------------12--|--------12------------------12--|
A|------------------------12------|------------------------12------|
E|--10---------10-10--10----------|--10---------10-10--10----------|


    E  E  E  E  E  E  E  E     E  E  E  E  E  E  E  E   
G|--------------------------|--------------------------|
D|--------------------------|--------------------------|
A|--9--9--9--9--9--9--9--9--|--9--9--9--9--9--9--9--9--|
E|--------------------------|--------------------------|


[Chorus 1]

(Bass)

     E   E   E   E   E   E   E   E      E   E   E   E   E   E   E  E   
G|----------------------------------|---------------------------------|
D|----------------------------------|------------------11--12--11--7--|
A|--10--10--10--10--10--10--10--10--|--10--10--10--10-----------------|
E|----------------------------------|---------------------------------|


    E  E  E  E  E  E  E  E     E  E  E  E  E   E   E  E   
G|--------------------------|----------------------------|
D|--9--9--9--9--9--9--9--9--|----------------------------|
A|--------------------------|--9--9--9--9--9--12--12--9--|
E|--------------------------|----------------------------|


     E   E   E   E   E   E   E   E      E   E   E   E   E   E   E  E   
G|----------------------------------|---------------------------------|
D|----------------------------------|------------------11--12--11--7--|
A|--10--10--10--10--10--10--10--10--|--10--10--10--10-----------------|
E|----------------------------------|---------------------------------|


    E  E  E  E  E  E  E  E     E  E  E  E  E  E  E  E   
G|--------------------------|--------------------------|
D|--9--9--9--9--9--9--9--9--|--------------------------|
A|--------------------------|--9--9--9--9--9--9--9--9--|
E|--------------------------|--------------------------|


     E   E   E   E   E   E   E   E      E   E   E   E   E   E   E  E   
G|----------------------------------|---------------------------------|
D|----------------------------------|------------------11--12--11--7--|
A|--10--10--10--10--10--10--10--10--|--10--10--10--10-----------------|
E|----------------------------------|---------------------------------|


    E  E  E  E  E  E  E  E     E  E  E  E  E   E   E  E   
G|--------------------------|----------------------------|
D|--9--9--9--9--9--9--9--9--|----------------------------|
A|--------------------------|--9--9--9--9--9--12--12--9--|
E|--------------------------|----------------------------|


     E   E   E   E   E   E   E   E      E   E   E   E   E   E   E   E   
G|----------------------------------|----------------------------------|
D|----------------------------------|----------------------------------|
A|--10--10--10--10--10--10--10--10--|--10--10--10--10--10--10--10--10--|
E|----------------------------------|----------------------------------|


     E   E   E   E   E   E   E   E      E   E   E   E   E   E   E   E   
G|----------------------------------|----------------------------------|
D|--12--12--12--12--12--12--12--12--|--12--12--12--12--12--12--12--12--|
A|----------------------------------|----------------------------------|
E|----------------------------------|----------------------------------|


[Pre-verse]

(Bass)

    Q     E.  S E  E   E   E     Q     E.  S E  E   E   E   
G|-------11---------------11--|-------11---------------11--|
D|--------------------11------|--------------------11------|
A|--9---------9-9--9----------|--9---------9-9--9----------|
E|----------------------------|----------------------------|


     Q     E.   S  E   E   E   E      Q     E.   S  E   E   E   E   
G|--------12------------------12--|--------12------------------12--|
D|------------------------12------|------------------------12------|
A|--10---------10-10--10----------|--10---------10-10--10----------|
E|--------------------------------|--------------------------------|


     Q     E.   S  E   E   E   E      Q     E.   S  E   E   E   E   
G|--------------------------------|--------------------------------|
D|--------12------------------12--|--------12------------------12--|
A|------------------------12------|------------------------12------|
E|--10---------10-10--10----------|--10---------10-10--10----------|


    Q     E.  S E  E   E   E     Q     E.  S E  E   E   E   
G|-------11---------------11--|-------11---------------11--|
D|--------------------11------|--------------------11------|
A|--9---------9-9--9----------|--9---------9-9--9----------|
E|----------------------------|----------------------------|


[Verse 2]
(Bass)

// just the same as in Verse 1


[Chorus 1]
(Bass)

// just the same as in Chorus 1


[Chorus 2]

(Bass)

    E  E  E  E  E  E  E  E     E  E  E  E  E  E  E  E   
G|--------------------------|--------------------------|
D|--------------------------|--------------------------|
A|--9--9--9--9--9--9--9--9--|--9--9--9--9--9--9--9--9--|
E|--------------------------|--------------------------|


     E   E   E   E   E   E   E   E      E   E   E   E   E   E   E   E   
G|----------------------------------|----------------------------------|
D|----------------------------------|----------------------------------|
A|--10--10--10--10--10--10--10--10--|--10--10--10--10--10--10--10--10--|
E|----------------------------------|----------------------------------|


     E   E   E   E   E   E   E   E      E   E   E   E   E   E   E   E   
G|----------------------------------|----------------------------------|
D|----------------------------------|----------------------------------|
A|----------------------------------|----------------------------------|
E|--10--10--10--10--10--10--10--10--|--10--10--10--10--10--10--10--10--|


    E  E  E  E  E  E  E  E     E  E  E  E  E  E  E  E   
G|--------------------------|--------------------------|
D|--------------------------|--------------------------|
A|--9--9--9--9--9--9--9--9--|--9--9--9--9--9--9--9--9--|
E|--------------------------|--------------------------|


     E   E   E   E   E   E   E   E      E   E   E   E   E   E   E   E   
G|----------------------------------|----------------------------------|
D|----------------------------------|----------------------------------|
A|--10--10--10--10--10--10--10--10--|--10--10--10--10--10--10--10--10--|
E|----------------------------------|----------------------------------|


     E   E   E   E   E   E   E   E      E   E   E   E   E   E   E   E   
G|----------------------------------|----------------------------------|
D|----------------------------------|----------------------------------|
A|----------------------------------|----------------------------------|
E|--10--10--10--10--10--10--10--10--|--10--10--10--10--10--10--10--10--|


[Outro]
(Bass)

    Q     E.  S E  E   E   E     Q     E.  S E  E   E   E   
G|-------11---------------11--|-------11---------------11--|
D|--------------------11------|--------------------11------|
A|--9---------9-9--9----------|--9---------9-9--9----------|
E|----------------------------|----------------------------|


     Q     E.   S  E   E   E   E      Q     E.   S  E   E   E   E   
G|--------12------------------12--|--------12------------------12--|
D|------------------------12------|------------------------12------|
A|--10---------10-10--10----------|--10---------10-10--10----------|
E|--------------------------------|--------------------------------|


     Q     E.   S  E   E   E   E      Q     E.   S  E   E   E   E   
G|--------------------------------|--------------------------------|
D|--------12------------------12--|--------12------------------12--|
A|------------------------12------|------------------------12------|
E|--10---------10-10--10----------|--10---------10-10--10----------|


    Q     E.  S E  E   E   E     Q     E.  S E  E   E   E      W                 
G|-------11---------------11--|-------11---------------11--|-----------------|
D|--------------------11------|--------------------11------|-----------------|
A|--9---------9-9--9----------|--9---------9-9--9----------|--10-------------|
E|----------------------------|----------------------------|-----------------|


    W                    W                   W                  
G|-------------------|--------------------|-------------------||
D|-------------------|--------------------|-------------------||
A|--L----------------|---L----------------|--L----------------||
E|-------------------|--------------------|-------------------||

 

************************************
 
| L - tied note  

************************************
Suggest correction
comments
print report bad tab
8 comments total. Showing first comments. show 1 bad comment
-1 reply
Bassface 22 10 wrote on December 6 2009, 11:59 am

Okay its a very good tab but there seems to be too many noted when the bass kicks in more heavily, such as the intro...
But the rest is fine, 5*s

0 reply
Haloquadratum 110 wrote on April 25 2013, 04:43 am

you missed some parts where he plays like this:

--------------------------------|--------------------------------|
--------12------------------12--|--------12------------------12--|
--------------------------------|--------------------------------|
--10---------10-10--10----------|--10---------10-10--10----------|

There is not always this 11 or 12.

guest
You may want to rate the tab now too:
select rating
Please do not post tabs as comments. Select "correction" instead!