Oops, an error
Loading. Please wait.

Plug In Baby Bass Tab

version 7
by Muse
4,154 views 3 this week
3 commentsread comments
1 2 3 4 5
x 3
add to favorites
launch autoscroll
font size
0
reset
guitar tuner
Autoscroll
slow
fast
+/-
esc
set tempo
stop
Help us to improve Ultimate-Guitar.com Take our survey!
×
Author
Difficulty
intermediate
SONG: Plug In Baby
ARTIST: MUSE
ALBUM: Origin of Symmetry
INTRO (0:12)
G---7----7---7---7--11----11--11----11--12------12--12------12--|
D------7--------7-------11--------11----------12----------12----|
A-5--55----5--55--9---99----9---99----10--1010----10--1010------| x2
E---------------------------------------------------------------|
VERSE (0:33)
G---7----7---7---7--11----11--11----11--12------12--12------12--7----7|
D------7--------7-------11--------11----------12----------12--------7-|
A-5--55----5--55--9---99----9---99----10--1010----10--1010-----5--55--|
E---------------------------------------------------------------------|
CHORUS (0:58)
G-------------------------------------------------------------------|
D------------------------------5--------------------------------5---|
A-------------------------------5--22222222----------------------5--|
E-22222222222222223333333333333--3---------222222223333333333333----|
G------------------|
D------------------|
A-5555555555555555-|
E------------------|
PRE-VERSE (1:29)
G--11----11-11----11---12------12--12------12-7---7-7----7-11----11-|
D------11-------11-----------12----------12------7-----7-------11---|
A-9--99----9--99-----10--1010----10--1010----5-55--5-55---9--99-----|
E-------------------------------------------------------------------|
VERSE 2 (1:44)
G---12------12--12------12-7---7-7---7--11----11-11----11---|
D---------12----------12------7-----7-------11-------11-----|
A-10--1010----10--1010----5-55--5-55--9---99----9--99-------|
E-----------------------------------------------------------|
CHORUS (2:12)
BRIDGE (2:43)
G--------------------------|
D--eighth notes on upbeat--|
A--F# x8---G x8--- Dx8-----| x2
E--------------------------|
OUTRO (3:05)
G--11----11-11-------12------12--12------12-7---7-7---7--11----11--|
D------11-------11---------12----------12------7-----7-------11----|
A-9--99----9--99---10--1010----10--1010----5-55--5-55--9---99------|
E------------------------------------------------------------------|

End on B#.


Cheers, Becky.
Suggest correction
Give kudos to tab author, rate the tab!
1 2 3 4 5
comments
print report bad tab
3 comments total.
0 reply
afratmdk 133 Apr 22, 2008 07:57 PM

it looks pretty good but i'm almost positive that the chorus is an octive higher then you have it

0 reply
AJBOXER 10 Feb 18, 2009 05:01 AM

Not bad but the verse is slightly wrong,

This is the way Chris plays it:

G:---7-7-----7|
D:---------7--|
A:-5----55----|
E:------------|

You only missed that on beat where you play the octave the G string one more time. You will get sharper sound and its a typical Chris Wolstenholme sound. Play that all the time in the verses.

Chorus isnt bad its got some total **** ups that you really need to sort out!!!
My own versin will be posted soon so please look at that when its posted.

0 reply
djslipdrive 10 Oct 31, 2013 09:23 AM

Good but the low E is actually Drop D so you are higher on the neck and it eases the fingering on the back and forth.
CHORUS (0:58)


G---------------------------------------------------------------------------|
D---------------------------------------------------------------------------|
A------------------------------454022222222------00-------------454022222222|
D-44444444444444445555555555555------------444444--4555555555555------------|

guest
You may want to rate the tab now too:
select rating
Wanna post a correction for this tab? Suggest correction