Oops, an error
Loading. Please wait.

Popcorn Bass Tab

version 1
version 1

Whole song

Interactive

by Muse
8,011 views 3 this week
1 commentread comment
1 2 3 4 5
x 9
add to favorites
launch autoscroll
font size
0
reset
guitar tuner
Autoscroll
slow
fast
+/-
esc
set tempo
stop
Help us to improve Ultimate-Guitar.com Take our survey!
×
Author
Difficulty
novice
Popcorn Bass Tab
by Will Longman

Tabbed from performance on Taratata, September 2009

Intro
---------------------------|
--9-----9-----9-----9------|
-----9-----9-----9-----9---|
---------------------------|

Riff 1
---------------------------------------------------|
--9-----9-----9-----9-----9-----7-----5-----9------|
-----9-----9-----9-----9-----9-----7-----5-----9---|
---------------------------------------------------|

Riff 2
-------------------------------------------------------------------|
--12------12------12------12------16------14------12------12-------|
------12------12------12------12------16------14------12------12---|
-------------------------------------------------------------------|

Order
Intro
Riff 1 (x2)
Riff 2 (x2)
Riff 1 (x2)
Riff 2 (x2)
Riff 1 (x2)
Riff 2 (x2)
Riff 1 (x2)
Riff 2 (x2)
Riff 1 (x2)
Suggest correction
comments
print report bad tab
1 comment total.
+1 reply
sponboy666 10 Mar 09, 2010 05:01 PM

This tab is SPOT on, which ever idiot rated 2 starts is wrong, its deffinatley a 5 star tab 100% correct.

guest
You may want to rate the tab now too:
select rating
Wanna post a correction for this tab? Suggest correction