Oops, an error
Loading. Please wait.

Prague Bass Tab

by Muse
1,100 views 1 this week
no commentswrite comment
1 2 3 4 5
please rate
add to favorites
launch autoscroll
font size
0
reset
guitar tuner
Tab Pro tools
  • play this tab
  • loop segment
  • change instrument
  • show fretboard
  • metronome
×
Best way to learn
"Prague"
Autoscroll
slow
fast
+/-
esc
set tempo
stop
Contributor
Difficulty
novice
Band: Muse
Song: Prague (Mega City Four cover)
Album: The Resistance single B-side (2009)
Bassist: Chris Wolstenholme
Tuning: Standard

Sounds a bit lower to me but maybe Chris use octave pedal or something
to get that sound or maybe this is my mistake. Anyway - fell free to comment
if something isn't right and I will correct that.
[0:04] Verse:

G|------------------------|
D|------------5--5--5--5--|
A|3--3--3--3--------------|
E|------------------------|

[0:27]

G|------------------------|
D|------------5--5--5--55-|
A|3--3--3--3--------------|
E|------------------------|

Chorus:

G|-------------------------|
D|-------------------------|
A|-------------------------|
E|1--1--1--1h3-3--3--3--3--|

G|-------------------------|
D|-------------------------|
A|0--0--0--0h2-2--2--2--2--|
E|-----------------------3-|

[0:51] Verse:

G|------------------------|
D|------------5--5--5--55-|
A|3--3--3--33-------------|
E|------------------------|

[1:23] Chorus:

G|-------------------------|
D|-------------------------|
A|-------------------------|
E|1--1--1--1h3-3--3--3--33-|

G|-------------------------|
D|-------------------------|
A|0--0--0--0h2-2--2--2--2--|
E|-----------------------3-|

[1:40] Verse:

G|------------------------|
D|------------5--5--5--5--|
A|3--3--3--3--------------|
E|------------------------|

[2:12] Chorus:

G|-------------------------|
D|-------------------------|
A|-------------------------|
E|1--1--1--1h3-3--3--3--33-|

G|-------------------------|
D|-------------------------|
A|0--0--0--0h2-2--2--2--2--|
E|-----------------------3-|

[2:28] Verse: You can play it like first or second time or like below:

G|------------------------| This is just a variation. I don't know the
D|------------5--5--5--50-| way You will prefer to play this song but
A|3--3--3--30-------------| You got main idea so use Your imagination :)
E|------------------------| 

Anyway - last note - 3 on A except that messy ending.

Hope that You'll find this tab useful. Please rate and check out other
MUSE tabs tabbed by me.

/  slide up
\  slide down
h  hammer-on
p  pull-off
~  let ring
comments
We did not receive enough feedback on this tab! Please rate:
print report bad tab
1 2 3 4 5
I want to post or [tab]
guest
You may want to rate the tab now too:
select rating
Please do not post tabs as comments. Select "correction" instead!