Oops, an error
Loading. Please wait.

Prague Tab

by Muse
1,729 views 1 this week
1 commentread comment
1 2 3 4 5
1 last vote to show rating
add to favorites
launch autoscroll
font size
0
reset
how to read this tab
guitar tuner
Autoscroll
slow
fast
+/-
esc
set tempo
stop
Help us to improve Ultimate-Guitar.com Take our survey!
×
Author
Difficulty
novice
Tuning: Standard


Heavy distortion


e|------------------------------------------------|
B|------------------------------------------------|
G|-5--5--5--5--5--5--5--5-------------------------|  
D|-5--5--5--5--5--5--5--5--5--5--5--5--5--5--5--5-| x4
A|-3--3--3--3--3--3--3--3--5--5--5--5--5--5--5--5-| 
E|-------------------------3--3--3--3--3--3--3--3-| 



  "Knowing we might never meet again..."
e|------------------------------------------------|
B|------------------------------------------------|
G|------------------------------------------------|  
D|-3--3--3--3--3--3--3--3--5--5--5--5--5--5--5--5-|  
A|-3--3--3--3--3--3--3--3--5--5--5--5--5--5--5--5-| x2
E|-1--1--1--1--1--1--1--1--3--3--3--3--3--3--3--3-|


And repeat!



Thats pretty much the whole song, except for the very end:

e|---------|--------------|
B|---------|-- ad. lib ---|
G|---7b----|-- feedback --|
D|---------|-- w/ whammy -|
A|---------|--------------|
E|---------|--------------|



Very basic song, great to improvise over

Enjoy!!
Suggest correction
Give kudos to tab author, rate the tab!
1 2 3 4 5
comments
print report bad tab
1 comment total.
0 reply
GuitarDomen 140 Apr 03, 2011 07:03 AM

Very short, but awesome! :)

guest
You may want to rate the tab now too:
select rating
Wanna post a correction for this tab? Suggest correction