Oops, an error
Loading. Please wait.
We have an official Reapers tab made by UG professional guitarists. Check out the tab »
×
by Muse
17,804 views 36 this week
4 commentsread comments
1 2 3 4 5
x 15
add to favorites
×
Save as Personal and add changes to this tab that will be seen only by you. Learn more ›
×
You can save this tab as Personal to edit and correct it or add notes. All changes will be seen only by you. Learn more »
launch autoscroll
font size
0
reset
how to read this tab
guitar tuner
backing track
0:00
0:00
edit
Autoscroll
slow
fast
+/-
esc
set tempo
stop
[INTRO]
   T             T              T             T
E|----------    ----------    -----------    -----------    -|
B|----------    ----------    -----------    -----------    -|
G|----------    ----------    -----------    -----------    -|
D|-12-0-4-7- x8 -12-0-5-8- x8 -12-0-8-11- x8 -12-0-7-10- x8 -|
A|----------    ----------    -----------    -----------    -|
D|----------    ----------    -----------    -----------    -|
   T             T             T
E|----------    ----------    ----------    ---------|
B|----------    ----------    ----------    -x-x-x-x-| (use pick
G|-12-0-3-7-    -12-0-5-8-    -12-0-6-9-    -x-x-x-x-|  and slide down
D|---------- x8 ---------- x8 ---------- x8 -x-x-x-x-|  the guitar)
A|----------    ----------    ----------    ---------|
D|----------    ----------    ----------    ---------|

[VERSE]
E|-------    -------    ---------    -------    -|
B|-66-xx-    -88-xx-    -1010-xx-    -88-xx-    -|
G|-77-xx-    -77-xx-    -7-7--xx-    -77-xx-    -|
D|-77-xx- x4 -77-xx- x4 -7-7--xx- x4 -77-xx- x4 -| x2
A|-------    -------    ---------    -------    -|
D|-------    -------    ---------    -------    -|

[BRIDGE]
E|-------------------------|--------------------|
B|-------------------------|--------------------|
G|-------------------------|--------------------|
D|-------------------------|---------------5--6-|
A|---5-3-0-3p0---------5---|-5-3-0-3p0-----3--4-|
D|-0-----------5-3-0-0---0-|-----------5p0------|

E|-------------------------|--------------------|
B|-------------------------|--------------------|
G|-------------------------|--------------------|
D|-------------------------|---------------3--4-|
A|---5-3-0-3p0---------5---|-5-3-0-3p0-----3--4-|
D|-0-----------5-3-0-0---0-|-----------5p0-3--4-|

[CHORUS]
E|--------------|--------------|--------------------|------------------|
B|--------------|--------------|--------------------|------------------|
G|--------------|--------------|--------------------|------------------|
D|--------------|--------------|--------------------|------------------| x2
A|--------------|--------------|--------------------|--------------3-2-|
D|-3-5-5555-3h5-|-2-3-3333-2h3-|-8-10-10101010-8h10-|-3-5-5555-5p0-3-2-|

[INTRO]
  difference: for all parts (except the last one)
              and for each group of 4 notes (including tap note)
              use the whammy pedal on the
              3rd, 4th, 7th and 8th time
              you play the 4 notes.

[VERSE]
[BRIDGE]
[CHORUS]

[BRIDGE 2]
E|-------------------------|    |--------------------|
B|-------------------------|    |--------------------|
G|-------------------------|    |--------------------|
D|-------------------------|    |--------------------|
A|---5-3-0-3p0---------5---| x3 |-5-3-0-3p0----------|
D|-------------5-3-0-0---0-|    |-----------5p0------|

[SOLO GTR](W means whammy setup with octave up)
start with a pick on the E string in the guitar headstock (just after the nut)
and use whammy pedal setup with +1 octave up
                                          W  W  W  W
E|----------------------------------------------------|
B|-13~--10--------------------------------------------|
G|------10--------------------------------------13----|
D|-----------12p10h12p10h12p10---------------13----13-|
A|----------------------------12p10-12-10-11----------|
D|----------------------------------------------------|
                    W
E|----------------------------------------------------|
B|----------------------------------------------------|
G|----------------------------------------------------|
D|------------------13--------------------------------|
A|-10h11p10-8-10-11----10h11p10-8----8----------------|
D|--------------------------------12---12-------------|

E|---------12-----------------------------------------|
B|---------12--15b(17)-(17)-(17)-15h17p15------x-x-x--| (use your pick
G|-14b(16)-------------------------------------x-x-x--|  to tap D,G and B
D|---------------------------------------17----x-x-x--|  strings down the
A|-----------------------------------------17---------|  guitar
D|----------------------------------------------------|  - see muse video)

E|-------------------------------------------------------15-14-12-|
B|------12tr14-----------------------------------15-14-12---------|
G|12tr14------12tr14---------------------14-13-12-----------------|
D|------------------14-12--------14-13-12-------------------------|
A|-----------------------14-13-12---------------------------------|
D|----------------------------------------------------------------|

E|------15------15-----------------------------------------|
B|-------------------------------15------15-------15-17-18-|
G|-15h16---15h16---15h16p15--------------------------------|
D|--------------------------16h17---16h17---16h17----------|
A|---------------------------------------------------------|
D|---------------------------------------------------------|

E|-15-17-18-17-15-17-15----15------------------------------|
B|----------------------18----18-17-15-17------------------|
G|---------------------------------------------------------|
D|---------------------------------------------------------|
A|---------------------------------------------------------|
D|---------------------------------------------------------|

E|------17------17-----------------------------------------|
B|-------------------------------17------17-------17-19-20-|
G|-17h18---17h18---17h18p17--------------------------------|
D|--------------------------18h19---18h19---18h19----------|
A|---------------------------------------------------------|
D|---------------------------------------------------------|

E|-17-19-20-19-17-19-17----17------------------------------|
B|----------------------20----20-19-17-19------------------|
G|---------------------------------------------------------|
D|---------------------------------------------------------|
A|---------------------------------------------------------|
D|---------------------------------------------------------|

E|-22-22-22-22-22-20-22-20-19-20---------|
B|---------------------------------------|
G|---------------------------------------|
D|---------------------------------------|
A|---------------------------------------|
D|---------------------------------------|

E|-20-20-20-20-20-19-20-19-17-20---------|
B|---------------------------------------|
G|---------------------------------------|
D|---------------------------------------|
A|---------------------------------------|
D|---------------------------------------|

E|-20-20-20-20-20-19-20-19-17-19---------|
B|---------------------------------------|
G|---------------------------------------|
D|---------------------------------------|
A|---------------------------------------|
D|---------------------------------------|

E|-19-19-19-19-19-17-19-17-15------------|
B|---------------------------------------|
G|---------------------------------------|
D|---------------------------------------|
A|---------------------------------------|
D|---------------------------------------|

      W W                W W                  W W               W
E|-15-----15-13-12-15-13-----13-12-10-13-|-12-----12-10-8-12-10---10-8--8h10p8/7-- (Matt plays this part live
B|---------------------------------------|----------------------------------------  with whammy set to
G|---------------------------------------|---------------------------------------- +1 octave up for this bar
D|---------------------------------------|----------------------------------------  and
A|---------------------------------------|----------------------------------------  +2 octaves up
D|---------------------------------------|----------------------------------------  for the following bar)

      W W                W W                  W W               W
E|-15-----15-13-12-15-13-----13-12-10-13-|-12-----12-10-8-12-10---10-8--8h10p8/7----|each note
B|---------------------------------------|------------------------------------------|is "shredded"
G|---------------------------------------|------------------------------------------|and not played
D|---------------------------------------|------------------------------------------|just once.
A|---------------------------------------|------------------------------------------|tab is easier 
D|---------------------------------------|------------------------------------------|like this..-
to read

[CHORUS]
E|-----------------------|-----------------------|
B|-----------------------|-----------------------|
G|-----------------------|-----------------------|
D|-----------------------|-----------------------|
A|-3-5-555555-3h5-555555-|-2-3-333333-2h3-333333-|
D|-3-5-555555-3h5-555555-|-2-3-333333-2h3-333333-|

E|-------------------------------------|--------------------|
B|-------------------------------------|--------------------|
G|-------------------------------------|--------------------|
D|-------------------------------------|--------------------|(x4)
A|-8-10-101010101010-8h10-101010101010-|-3-5-555555-5p0-3-2-|
D|-8-10-101010101010-8h10-101010101010-|-3-5-555555-5p0-3-2-|

  second guitar to be played on the 3rd and 4th time
E|---------15-------    ---------13-------    -|
B|-----15----15--15-    -----13----13--13-    -|
G|---16--16----16---    ---14--14----14---    -|
D|-17--------------- x2 -15--------------- x2 -|
A|------------------    ------------------    -|
D|------------------    ------------------    -|

E|--------12-------    ---------10-----------------------|
B|----13----13--13-    -----12-----12--12----------------|
G|--12--12----12---    ---12--12-----12---10-h12p10/9~~--|
D|14--------------- x2 -12-------------------------------|(x2)
A|-----------------    ----------------------------------|
D|-----------------    ----------------------------------|

[OUTRO]
E|------------------------------------|
B|------------------------------------|
G|------------------------------------|
D|-0----------------------------------|
A|-0----------------------------------|
D|-0----------------------------------|

E|------------------------------------|
B|------------------------------------|
G|------------------------------------|
D|------------------------------------|(x8
)
A|------------------------------------|
D|-12-0-3-0-4-5-0-6-0-7-8-0-9-0-10-11-|

E|------------------------------------|
B|------------------------------------|
G|------------------------------------|
D|-0----------------------------------|
A|-0----------------------------------|
D|-0----------------------------------|

************************************

| x    Dead note
| p    Pull-off
| h    Hammer-on
| ~    Vibrato
| (n)  Ghost note
| tr   Trill
| /    Slide up

************************************

            
            
Suggest correction
Creating personal tab
Creating personal tab
You can edit any tab online and save it as your Personal.

You can edit, replace or remove any tab part or add personal notes – all changes will be seen only by you.

Personal tabs can be accessed anytime from any device, even offline.
Learn more »
comments
print report bad tab
4 comments total. Showing first comments.
+1 reply
irhagzy 1,297 May 31, 2015 01:56 AM

Hey man, good contribution :) there are some notes I personally would play differently but this tab definitely suffices :) main pointer though - in the drop down tuning selection box I think you have selected D tuning instead of drop D and this did cause some confusion initially. Nothing major though, so well done :)

guest
You may want to rate the tab now too:
select rating
Wanna post a correction for this tab? Suggest correction