Oops, an error
Loading. Please wait.
We have an official Reapers tab made by UG professional guitarists. Check out the tab »
×
by Muse
4,778 views 15 this week
5 commentsread comments
1 2 3 4 5
x 3
add to favorites
×
Save as Personal and add changes to this tab that will be seen only by you. Learn more ›
×
You can save this tab as Personal to edit and correct it or add notes. All changes will be seen only by you. Learn more »
launch autoscroll
font size
0
reset
how to read this tab
guitar tuner
backing track
0:00
0:00
edit
Autoscroll
slow
fast
+/-
esc
set tempo
stop
-------------------------------------------------------------------------------
                             Reapers - Muse
-------------------------------------------------------------------------------
Tabbed by: Muser00

Tuning: DADGBe

Intro:
             Tapping
E|------------------------------------------------------------------------|
B|------------------------------------------------------------------------|
G|------------------------------------------------------------------------|
D|12-0-4-7-12-0-4-7-12-0-4-7-12-0-4-7-12-0-4-7-12-0-4-7-12-0-4-7-12-0-4-7-|
A|------------------------------------------------------------------------|
d|------------------------------------------------------------------------|

             Tapping
E|------------------------------------------------------------------------|
B|------------------------------------------------------------------------|
G|------------------------------------------------------------------------|
D|12-0-5-8-12-0-5-8-12-0-5-8-12-0-5-8-12-0-5-8-12-0-5-8-12-0-5-8-12-0-5-8-|
A|------------------------------------------------------------------------|
d|------------------------------------------------------------------------|

             Tapping
E|--------------------------------------------------------------------------------|
B|--------------------------------------------------------------------------------|
G|--------------------------------------------------------------------------------|
D|12-0-8-11-12-0-8-11-12-0-8-11-12-0-8-11-12-0-8-11-12-0-8-11-12-0-8-11-12-0-8-11-|
A|--------------------------------------------------------------------------------|
d|--------------------------------------------------------------------------------|

             Tapping
E|--------------------------------------------------------------------------------|
B|--------------------------------------------------------------------------------|
G|--------------------------------------------------------------------------------|
D|12-0-7-11-12-0-7-11-12-0-7-11-12-0-7-11-12-0-7-11-12-0-7-11-12-0-7-11-12-0-7-11-|
A|--------------------------------------------------------------------------------|
d|--------------------------------------------------------------------------------|

             Tapping
E|------------------------------------------------------------------------|
B|------------------------------------------------------------------------|
G|12-0-3-7-12-0-3-7-12-0-3-7-12-0-3-7-12-0-3-7-12-0-3-7-12-0-3-7-12-0-3-7-|
D|------------------------------------------------------------------------|
A|------------------------------------------------------------------------|
d|------------------------------------------------------------------------|

             Tapping
E|------------------------------------------------------------------------|
B|------------------------------------------------------------------------|
G|12-0-5-8-12-0-5-8-12-0-5-8-12-0-5-8-12-0-5-8-12-0-5-8-12-0-5-8-12-0-5-8-|
D|------------------------------------------------------------------------|
A|------------------------------------------------------------------------|
d|------------------------------------------------------------------------|

             Tapping
E|------------------------------------------------------------------------|
B|------------------------------------------------------------------------|
G|12-0-6-9-12-0-6-9-12-0-6-9-12-0-6-9-12-0-6-9-12-0-6-9-12-0-6-9-12-0-6-9-|
D|------------------------------------------------------------------------|
A|------------------------------------------------------------------------|
d|------------------------------------------------------------------------|

             Tapping
E|-----------------------------------------------|
B|-----------------------------------------------|
G|12-11-12-10-12-9-12-8-12-7-12-6-12-5-12-4-12-3-|
D|-----------------------------------------------|
A|-----------------------------------------------|
D|-----------------------------------------------|

Verse:

 
E|---------------------------------------------------------------------------------------------------|
B|66-xx-66-xx-66-xx-66-xx-88-xx-88-xx-88-xx-88-xx-1010xx-1010xx-1010xx-1010xx-88-xx-88-xx-88-xx-88-xx|
G|77-xx-77-xx-77-xx-77-xx-77-xx-77-xx-77-xx-77-xx-7-7-xx-7-7-xx-7-7-xx-7-7-xx-66-xx-66-xx-66-xx-66-xx|
D|77-xx-77-xx-77-xx-77-xx-55-xx-55-xx-55-xx-55-xx-8-8-xx-8-8-xx-8-8-xx-8-8-xx-77-xx-77-xx-77-xx-77-xx|
A|55-xx-55-xx-55-xx-55-xx----------------------------------------------------------------------------|
D|---------------------------------------------------------------------------------------------------|

E|---------------------------------------------------------------------------------------------------|
B|66-xx-66-xx-66-xx-66-xx-88-xx-88-xx-88-xx-88-xx-1010xx-1010xx-1010xx-1010xx-88-xx-88-xx-88-xx-88-xx|
G|77-xx-77-xx-77-xx-77-xx-77-xx-77-xx-77-xx-77-xx-7-7-xx-7-7-xx-7-7-xx-7-7-xx-66-xx-66-xx-66-xx-66-xx|
D|77-xx-77-xx-77-xx-77-xx-55-xx-55-xx-55-xx-55-xx-8-8-xx-8-8-xx-8-8-xx-8-8-xx-77-xx-77-xx-77-xx-77-xx|
A|55-xx-55-xx-55-xx-55-xx----------------------------------------------------------------------------|
D|---------------------------------------------------------------------------------------------------|
Bridge:
                    
E|---------------------------------------------|
B|---------------------------------------------|
G|---------------------------------------------|
D|-----------------------------------------5/6-|
A|--5-3-0-3-0---------5------5-3-0-3-0-----3/4-|
d|0-----------5-3-0-0---0--------------5-3-----|
                  
E|---------------------------------------------|
B|---------------------------------------------|
G|---------------------------------------------|
D|-----------------------------------------3/4-|
A|--5-3-0-3-0---------5------5-3-0-3-0-----3/4-|
d|0-----------5-3-0-0---0--------------5-3-3/4-|

Chorus:

E|---------------------------------------------------------------|x2
B|---------------------------------------------------------------|
G|---------------------------------------------------------------|
D|3-5-555-3h5---2-3-333-2h3---8-10-101010-8h10---3-5-555-3-0-3\2-|
A|3-5-555-3h5---2-3-333-2h3---8-10-101010-8h10---3-5-555-3-0-3\2-|
d|3-5-555-3h5---2-3-333-2h3---8-10-101010-8h10---3-5-555-3-0-3\2-|

Riff: (with whammy +ve)

            Tapping
E|------------------------------------------------------------------------|
B|------------------------------------------------------------------------|
G|------------------------------------------------------------------------|
D|12-0-4-7-12-0-4-7-12-0-4-7-12-0-4-7-12-0-4-7-12-0-4-7-12-0-4-7-12-0-4-7-|
A|------------------------------------------------------------------------|
d|------------------------------------------------------------------------|

             Tapping
E|------------------------------------------------------------------------|
B|------------------------------------------------------------------------|
G|------------------------------------------------------------------------|
D|12-0-5-8-12-0-5-8-12-0-5-8-12-0-5-8-12-0-5-8-12-0-5-8-12-0-5-8-12-0-5-8-|
A|------------------------------------------------------------------------|
d|------------------------------------------------------------------------|

             Tapping
E|--------------------------------------------------------------------------------|
B|--------------------------------------------------------------------------------|
G|--------------------------------------------------------------------------------|
D|12-0-8-11-12-0-8-11-12-0-8-11-12-0-8-11-12-0-8-11-12-0-8-11-12-0-8-11-12-0-8-11-|
A|--------------------------------------------------------------------------------|
d|--------------------------------------------------------------------------------|

             Tapping
E|--------------------------------------------------------------------------------|
B|--------------------------------------------------------------------------------|
G|--------------------------------------------------------------------------------|
D|12-0-7-11-12-0-7-11-12-0-7-11-12-0-7-11-12-0-7-11-12-0-7-11-12-0-7-11-12-0-7-11-|
A|--------------------------------------------------------------------------------|
d|--------------------------------------------------------------------------------|

             Tapping
E|------------------------------------------------------------------------|
B|------------------------------------------------------------------------|
G|12-0-3-7-12-0-3-7-12-0-3-7-12-0-3-7-12-0-3-7-12-0-3-7-12-0-3-7-12-0-3-7-|
D|------------------------------------------------------------------------|
A|------------------------------------------------------------------------|
d|------------------------------------------------------------------------|

             Tapping
E|------------------------------------------------------------------------|
B|------------------------------------------------------------------------|
G|12-0-5-8-12-0-5-8-12-0-5-8-12-0-5-8-12-0-5-8-12-0-5-8-12-0-5-8-12-0-5-8-|
D|------------------------------------------------------------------------|
A|------------------------------------------------------------------------|
d|------------------------------------------------------------------------|

             Tapping
E|------------------------------------------------------------------------|
B|------------------------------------------------------------------------|
G|12-0-6-9-12-0-6-9-12-0-6-9-12-0-6-9-12-0-6-9-12-0-6-9-12-0-6-9-12-0-6-9-|
D|------------------------------------------------------------------------|
A|------------------------------------------------------------------------|
d|------------------------------------------------------------------------|

             Tapping
E|-----------------------------------------------|
B|-----------------------------------------------|
G|12-11-12-10-12-9-12-8-12-7-12-6-12-5-12-4-12-3-|
D|-----------------------------------------------|
A|-----------------------------------------------|
D|-----------------------------------------------|

Verse:

E|---------------------------------------------------------------------------------------------------|
B|66-xx-66-xx-66-xx-66-xx-88-xx-88-xx-88-xx-88-xx-1010xx-1010xx-1010xx-1010xx-88-xx-88-xx-88-xx-88-xx|
G|77-xx-77-xx-77-xx-77-xx-77-xx-77-xx-77-xx-77-xx-7-7-xx-7-7-xx-7-7-xx-7-7-xx-66-xx-66-xx-66-xx-66-xx|
D|77-xx-77-xx-77-xx-77-xx-55-xx-55-xx-55-xx-55-xx-8-8-xx-8-8-xx-8-8-xx-8-8-xx-77-xx-77-xx-77-xx-77-xx|
A|55-xx-55-xx-55-xx-55-xx----------------------------------------------------------------------------|
D|---------------------------------------------------------------------------------------------------|

E|---------------------------------------------------------------------------------------------------|
B|66-xx-66-xx-66-xx-66-xx-88-xx-88-xx-88-xx-88-xx-1010xx-1010xx-1010xx-1010xx-88-xx-88-xx-88-xx-88-xx|
G|77-xx-77-xx-77-xx-77-xx-77-xx-77-xx-77-xx-77-xx-7-7-xx-7-7-xx-7-7-xx-7-7-xx-66-xx-66-xx-66-xx-66-xx|
D|77-xx-77-xx-77-xx-77-xx-55-xx-55-xx-55-xx-55-xx-8-8-xx-8-8-xx-8-8-xx-8-8-xx-77-xx-77-xx-77-xx-77-xx|
A|55-xx-55-xx-55-xx-55-xx----------------------------------------------------------------------------|
D|---------------------------------------------------------------------------------------------------|

Bridge:
                    
E|---------------------------------------------|
B|---------------------------------------------|
G|---------------------------------------------|
D|-----------------------------------------5/6-|
A|--5-3-0-3-0---------5-------5-3-0-3-0----3/4-|
d|0-----------5-3-0-0---0--------------5-3-----|
                  
E|---------------------------------------------|
B|---------------------------------------------|
G|---------------------------------------------|
D|-----------------------------------------3/4-|
A|--5-3-0-3-0---------5------5-3-0-3-0-----3/4-|
d|0-----------5-3-0-0---0--------------5-3-3/4-|

Chorus:

E|---------------------------------------------------------------|x2
B|---------------------------------------------------------------|
G|---------------------------------------------------------------|
D|3-5-555-3h5---2-3-333-2h3---8-10-101010-8h10---3-5-555-3-0-3\2-|
A|3-5-555-3h5---2-3-333-2h3---8-10-101010-8h10---3-5-555-3-0-3\2-|
d|3-5-555-3h5---2-3-333-2h3---8-10-101010-8h10---3-5-555-3-0-3\2-|

Bridge 2:

E|------------------------------------------------|
B|------------------------------------------------|
G|------------------------------------------------|
D|------------------------------------------------|
A|-5-3-0-3-0---------5------5-3-0-3-0---------5---|
d|-----------5-3-0-0---0--------------5-3-0-0---0-|
                  
E|--------------------------------------------|
B|--------------------------------------------|
G|--------------------------------------------|
D|----------------------------------------5/6-|
A|-5-3-0-3-0---------5------5-3-0-3-0-----3/4-|
d|-----------5-3-0-0---0--------------5-3-----|

Solo:

With whammy (+ve)

strike above nut
  + \\\\\ -                               +-    +-                      +-  +-
E|*----------------------------------------------------------------------------------|
B|*--------13~-----------------------------------------------------------------------|
G|*-----------10~-------------------------------13~~------------------------13~~-----|
D|*----------------12-10h12p10--------------13~~----13~~-----------------------------|
A|*----------------------------10h12p10-11~~------------10h11p10-8-10-11~~-----------|
d|*----------------------------------------------------------------------------------|

E|-------12-12----12----12----------------------|
B|-----12---15b17-15b17-15b17-------------------|
G|14b16-----------------------14b16-14b16-14-12-|      whammy nonsense
D|----------------------------------------------|
A|----------------------------------------------|
d|----------------------------------------------|
                   
E|-15tr17-19tr21-15tr17---------------------------------------15h14h12//-|
B|----------------------17-15-------------------------15h14h12-----------|
G|--------------------------------------------14h13h12-------------------|
D|------------------------------------14h13h12---------------------------|
A|----------------------------14h13h12-----------------------------------|
d|---------------------------------------------------------------|

E|-----15-----15-----------10-----10-------------15-17-18-17-15-17-15---15----------|
B|---------------------------------------15-17-18---------------------18---18-17-15-|
G|15h16--15h16--15h16-11h12--11h12--11h12-------------------------------------------|
D|----------------------------------------------------------------------------------|
A|----------------------------------------------------------------------------------|
d|----------------------------------------------------------------------------------|

E|-----17-----17-----------12-----12-------------17-19-20-19-17-19-17---17-------------|
B|---------------------------------------17-19-20---------------------20---20-19-17----|
G|17h18--17h18--17h18-13h14--13h14--13h14----------------------------------------------|
D|-------------------------------------------------------------------------------------|
A|-------------------------------------------------------------------------------------|
d|-------------------------------------------------------------------------------------|

E|20b(22)(22)(22)(22)r20-19-20-20-20-20-20-19-20-19-17-20-20-20-20-20-19-20-19-17-19-19-19-19-|
B|--------------------------------------------------------------------------------------------|
G|--------------------------------------------------------------------------------------------|
D|--------------------------------------------------------------------------------------------|
A|--------------------------------------------------------------------------------------------|
d|--------------------------------------------------------------------------------------------|

E|-19-17-19-17-15-|
B|----------------|
G|----------------|
D|----------------|
A|----------------|
d|----------------|

 

E|-15~-15~-15-13-12-15-13~-13~-13-12-10-13-12~-12~-12-10-8-12-10~-10-8-10-8h7-|
B|----------------------------------------------------------------------------|
G|----------------------------------------------------------------------------|
D|----------------------------------------------------------------------------|
A|----------------------------------------------------------------------------|
d|----------------------------------------------------------------------------|

Tremolo picking
 
E|-15~-15~-15-13-12-15-13~-13~-13-12-10-13-12~-12~-12-10-8-12-10~-10-8-10-8h7-|
B|----------------------------------------------------------------------------|
G|----------------------------------------------------------------------------|
D|----------------------------------------------------------------------------|
A|----------------------------------------------------------------------------|
d|----------------------------------------------------------------------------|

Chorus 

E|--------------------------------------------------------------------------------|x2
B|--------------------------------------------------------------------------------|
G|--------------------------------------------------------------------------------|
D|3-5-555-3-555-555-2-3-333-2-333-333-8-10-101010-101010-8-101010-3-5-555-3-0-3\2-|
A|3-5-555-3-555-555-2-3-333-2-333-333-8-10-101010-101010-8-101010-3-5-555-3-0-3\2-|
d|3-5-555-3-555-555-2-3-333-2-333-333-8-10-101010-101010-8-101010-3-5-555-3-0-3\2-|

 (alternate picking)
E|--------15--------------15---------------13--------------13-------|
B|----15----15--15----15----15--15-----13----13--13----13----13--13-|
G|--16--16----16----16--16----16-----14--14----14----14--14----14---|
D|17--------------17---------------15--------------15---------------|
A|------------------------------------------------------------------|
d|------------------------------------------------------------------|

E|--------12--------------12---------------10--------------10----------------------|
B|----13----13--13----13----13--13-----12----12--12----12----12--12----------------|
G|--12--12----12----12--12----12-----12--12----12----12--12----12---12-10-12h10h9--|
D|14--------------14---------------12--------------12------------------------------|
A|---------------------------------------------------------------------------------|
d|---------------------------------------------------------------------------------|

E|--------15--------------15---------------13--------------13-------|
B|----15----15--15----15----15--15-----13----13--13----13----13--13-|
G|--16--16----16----16--16----16-----14--14----14----14--14----14---|
D|17--------------17---------------15--------------15---------------|
A|------------------------------------------------------------------|
d|------------------------------------------------------------------|

E|--------12--------------12---------------10--------------10--------------------------------|
B|----13----13--13----13----13--13-----12----12--12----12----12--12--------------------------|
G|--12--12----12----12--12----12-----12--12----12----12--12----12----12-10-12h10h9-----------|
D|14--------------14---------------12--------------12----------------------------------------|
A|-------------------------------------------------------------------------------------------|
d|-------------------------------------------------------------------------------------------|

Outro:

E|---------------------------------|x2
B|---------------------------------|
G|---------------------------------|    
D|---------------------------------|
A|---------------------------------|
d|12-0-3-0-45-0-6-0-78-0-9-0-10-11-|

E|---------------------------------|x6
B|---------------------------------|
G|---------------------------------|
D|12-0-3-0-45-0-6-0-78-0-9-0-10-11-|
A|12-0-3-0-45-0-6-0-78-0-9-0-10-11-|
d|12-0-3-0-45-0-6-0-78-0-9-0-10-11-|

E|---------------------------------------|
B|-3--------3----------------------------|
G|-5b7------5b7--------------------------|    
D|-----0~~------0~~----------------------|
A|-----0~~------0~~----------------------|
d|-----0~~------0~~----------------------|

************************************

| /   slide up
| \   slide down
| h   hammer-on
| p   pull-off
| ~   vibrato
| +   harmonic
| x   Mute note
| b   Bend
| pb  Pre-bend
| br  Bend release
| pbr Pre-bend release
| brb Bend release bend

************************************

            
            
Suggest correction
Creating personal tab
Creating personal tab
You can edit any tab online and save it as your Personal.

You can edit, replace or remove any tab part or add personal notes – all changes will be seen only by you.

Personal tabs can be accessed anytime from any device, even offline.
Learn more »
Give kudos to tab author, rate the tab!
1 2 3 4 5
comments
print report bad tab
5 comments total. Showing first comments.
+2 reply
irhagzy 1,297 May 31, 2015 12:53 AM

Lack of accuracy. I feel that the verse chords are wrong, and notes in the solo in particular are not right. I also think the outro is missing the lead guitar section and has to many notes on the final alternate picked section.

0 reply
i.r.hagzy 10 May 31, 2015 01:26 AM, edited at 05:38 am

(ignore this, signed in with wrong email address, apologies :))

0 reply
Muser00 1,083 May 31, 2015 12:42 PM

Notte feedback, just my tab ;)

guest
You may want to rate the tab now too:
select rating
Wanna post a correction for this tab? Suggest correction