Oops, an error
Loading. Please wait.

Recess Bass Tab

version 2
version 2

Whole song

Interactive

by Muse
1,283 views 9 this week
no commentswrite comment
1 2 3 4 5
excellent!
x 2
add to favorites
launch autoscroll
font size
0
reset
guitar tuner
Tab Pro tools
  • play this tab
  • loop segment
  • change instrument
  • show fretboard
  • metronome
Autoscroll
slow
fast
+/-
esc
set tempo
stop
Contributor
Band: Muse
Song: Recess
Album: Hullabaloo Sountrack CD1(2002). Also features on the "Unintended" single (CD1)]
Bassist: Chris Wolstenholme
Tuning: Standard

G|------------|------------|
D|------------|------------|
A|------------|------------|
E|7-00-77-0-7-|7-00-55-0-5-| x4

G|-----------|-----------|-----------|-----------|
D|-----------|-----------|-----------|-----------|
A|-----------|-----------|-----------|-----------|
E|00-77-0-77-|00-77-0-77-|00-55-0-55-|00-55-0-55-| x2

G|-----------|-----------|-----------|-----------|
D|-----------|-----------|-----------|-----------|
A|55-00-5-00-|55-00-5-00-|-----------|-----------|
E|-----------|-----------|44-00-4-00-|44-00-4-00-|

G|--------|--------|--------|--------|------------|------------|
D|--------|--------|--------|--------|------------|------------|
A|--------|--------|--------|--------|------------|------------|
E|55555555|55555555|55555555|5555555/|7-00-77-0-7-|7-00-55-0-5-|

G|------------|------------|
D|------------|------------|
A|------------|------------|
E|7-00-77-0-7-|7-00-55-0-5-| x5

G|-----------|-----------|-----------|-----------|
D|-----------|-----------|-----------|-----------|
A|-----------|-----------|-----------|-----------|
E|00-77-0-77-|00-77-0-77-|00-55-0-55-|00-55-0-55-| x2

G|-----------|-----------|-----------|-----------|
D|-----------|-----------|-----------|-----------|
A|55-00-5-00-|55-00-5-00-|-----------|-----------|
E|-----------|-----------|44-00-4-00-|44-00-4-00-|

Next first 4 bars you need to play quiet,increasing loudness
G|--------|--------|--------|--------|------------|------------|
D|--------|--------|--------|--------|------------|------------|
A|--------|--------|--------|--------|------------|------------|
E|55555555|55555555|55555555|5555555/|7-00-77-0-7-|7-00-55-0-5-|

G|------------|------------|
D|------------|------------|
A|------------|------------|
E|7-00-77-0-7-|7-00-55-0-5-| x3

G|------------|------------|------------|------------|
D|------------|------------|------------|------------|
A|------------|------------|------------|------------|
E|00-77-00-77-|00-77-00-77-|00-55-00-55-|00-55-00-55-| x4

G|------------|------------|------------|------------|
D|------------|------------|------------|------------|
A|55-00-55-00-|55-00-55-00-|------------|------------|
E|------------|------------|44-00-44-00-|44-00-44-00-| x3

G|--------|--------|--------|--------|------------|
D|--------|--------|--------|--------|------------|
A|--------|--------|--------|--------|------------|
E|55555555|55555555|55555555|5555555/|7-00-77-0-7-|

/  slide up
\  slide down
h  hammer-on
p  pull-off
~  let ring
comments
We did not receive enough feedback on this tab! Please rate:
print report bad tab
1 2 3 4 5
I want to post or [tab]
guest
You may want to rate the tab now too:
select rating
Please do not post tabs as comments. Select "correction" instead!