Oops, an error
Loading. Please wait.

Recess Tab

version 2
version 2

Whole song

Interactive

by Muse
3,443 views 1 this week
no commentswrite comment
1 2 3 4 5
2 more votes to show rating
add to favorites
launch autoscroll
font size
0
reset
how to read this tab
guitar tuner
Autoscroll
slow
fast
+/-
esc
set tempo
stop
Help us to improve Ultimate-Guitar.com Take our survey!
×
Author
Band - Muse
Song - Recess

Tuning: standard
/ - Slide from the 1st fret


Acoustic:
E|--8-7-0-7-8-7-0-7-8-7-0-7-8-7-0-7---------------------------|
B|------------------------------------------------------------|
G|------------------------------------------------------------|
D|------------------------------------------------------------|
A|------------------------------------------------------------|
E|------------------------------------------------------------|

Thats played during the verse and chorus.

Play this riff a few times after the first chorus.

E|--/11--12-----------------------------------------|
B|---------12-13-----------------------12-13--------|
G|--------------12-13-------------12-13-------------|
D|--------------------13-14-13-14-------------------|
A|--------------------------------------------------|
E|--------------------------------------------------|

E|--/11--12-----------------------------------------|
B|---------12-13-----------------------12-13--------|
G|--------------13-14-------------13-14-------------|
D|--------------------13-14-13-14-------------------|
A|--------------------------------------------------|
E|--------------------------------------------------|


1st guitar:

E|---11--12-----------------------------------------|
B|---------12-13-----------------------12-13--------|
G|--------------12-13-------------12-13-------------|
D|--------------------13-14-13-14-------------------|
A|--------------------------------------------------|
E|--------------------------------------------------|

E|---11--12-----------------------------------------|
B|---------12-13-----------------------12-13--------|
G|--------------13-14-------------13-14-------------|
D|--------------------13-14-13-14-------------------|
A|--------------------------------------------------|
E|--------------------------------------------------|

2nd guitar:
E|----0-0-----0-0----0-0-----0-0--------------------|
B|----0-0-----0-0----0-0-----0-0--------------------|
G|----1-1-----1-1----1-1-----1-1--------------------|
D|----2-2-----2-2----2-2-----2-2--------------------|
A|-2-------2------2-------2-------------------------|
E|--------------------------------------------------|

E|----0-0-----0-0----0-0-----0-0--------------------|
B|----1-1-----1-1----1-1-----1-1--------------------|
G|----2-2-----2-2----2-2-----2-2--------------------|
D|----2-2-----2-2----2-2-----2-2--------------------|
A|-0-------0------0-------0-------------------------|
E|--------------------------------------------------|


1st guitar:

E|-13-13-13-13-12-12-12-12-13-13-13-13-12-12-12-12--|
B|--------------------------------------------------|
G|--------------------------------------------------|
D|--------------------------------------------------|
A|--------------------------------------------------|
E|--------------------------------------------------|

E|-13-13-15-15-16-16-16-16-17---let ring------------|
B|--------------------------------------------------|
G|--------------------------------------------------|
D|--------------------------------------------------|
A|--------------------------------------------------|
E|--------------------------------------------------|
Suggest correction
Give kudos to tab author, rate the tab!
1 2 3 4 5
comments
print report bad tab
guest
You may want to rate the tab now too:
select rating
Wanna post a correction for this tab? Suggest correction