Oops, an error
Loading. Please wait.

Resistance Bass Tab

version 1
version 1

Whole song

Interactive

by Muse
55,151 views 18 this week
1 commentread comment
1 2 3 4 5
accurate
x 6
add to favorites
launch autoscroll
font size
0
reset
guitar tuner
Autoscroll
slow
fast
+/-
esc
set tempo
stop
Help us to improve Ultimate-Guitar.com Take our survey!
×
Author
bassisfun 427
Resistance
Muse
The Resistance

Verse x2 (once for intro)
G|-------------------(12’s and 10’s)------------------------------|
D|----------------------------------------------------------------|_
A|1212121212121212121212121212121210101010101010101010101010101010| |
E|----------------------------------------------------------------| |
                                                                    |x2
G|--------------------------------|                                 |
D|--------------------------------|_________________________________|
A|88888888888888887777777777777777|
E|--------------------------------|
(don’t play 7’s on last measure of verse)

Pre-Chorus
G|----------------------------------------------------------|
D|-------15-151514h15p14-----------------19-191917h19p17----|_
A|8878-8/---------------1512-12121012-12/---------------1910| |
E|----------------------------------------------------------| |
                                                              |x2
G|-------------------------------------------------------|    |
D|-----------17-171715h17p15-----------15-151514h15p14---|____|
A|1010810-10/---------------178-8878-8/---------------157|
E|-------------------------------------------------------|
                                    ^stop here second time

Chorus
G|----------------------------------------------------------------|
D|----------------------------------------------------------------|
A|1010101010101010101010101010101010101010101010101010101010101010|
E|----------------------------------------------------------------|

G|----------------------------------------------------------------|
D|----------------------------------------------------------------|
A|55555555555555555555555555555555000000000000000000000000--------|
E|--------------------------------------------------------33333333|

G|----------------------------------------------------------------|
D|----------------------------------------15-1514151414-----------|
A|88888888888888888888888888888888-8878-8/--------------7~--------|
E|----------------------------------------------------------------|

Verse

Pre-Chorus

Final Chorus
G|----------------------------------------------------------------|
D|----------------------------------------------------------------|
A|1010101010101010101010101010101010101010101010101010101010101010|
E|----------------------------------------------------------------|

G|----------------------------------------------------------------|
D|----------------------------------------------------------------|
A|55555555555555555555555555555555000000000000000000000000--------|
E|--------------------------------------------------------33333333|

G|----------------------------------------------------------------|
D|----------------------------------------------------------------|
A|8888888888888888888888888888888888888888888888888888888888888888|
E|----------------------------------------------------------------|
Outro
G|------------|
D|------------|
A|7~----5~----|
E|------------|

G|---------8h10h8---------------12h14p12--|
D|-----8h10------10--------12h14--------14|___________
A|88888------------12121212---------------|           |
E|----------------------------------------|           |
                                                      |x3
G|---------------10h12p10-----------------10h12p12--| |
D|----------10h12--------12----------10h12--------12|_|
A|1010101010---------------1010101010---------------|
E|--------------------------------------------------|

G|---------8h10p8--|
D|-----8h10------8-|
A|88888-----------\|
E|-----------------|

G|--------------------------------------------------------|
D|--------------------------------------------------------|
A|12121212121212120000000012121212121212121010101010101010|
E|--------------------------------------------------------|

G|--------------------------------------------|
D|--------------------------------------------|
A|3333333355555555777788881010101012121212-12~|
E|--------------------------------------------|

That’s it, I know its not perfect but it should get you started

Suggest correction new What's this?
You can suggest a correction to this tab. Community and Mods will review your correction and vote to approve or reject it.
comments
print report bad tab
1 comment total.
0 reply
MuseHead2010 11 wrote on February 20 2010, 05:28 pm

chord progression right on verse, and the bridge has the basic idea. everything else is wrong.

guest
You may want to rate the tab now too:
select rating
Please do not post tabs as comments. Select "correction" instead!