Oops, an error
Loading. Please wait.

Resistance Tab

version 1
version 1

Solo

  • Resistance's solo outro, similar to Matt's live version.

Whole song

Interactive

by Muse
58 views 6 this week
no commentswrite comment
1 2 3 4 5
3 more votes to show rating
add to favorites
launch autoscroll
font size
0
reset
how to read this tab
guitar tuner
Autoscroll
slow
fast
+/-
esc
set tempo
stop
Help us to improve Ultimate-Guitar.com Take our survey!
×
Author
Difficulty
intermediate
About this tab version
Resistance's solo outro, similar to Matt's live version. Was this info helpful? Yes No
| Song:
|
|   Name:       Resistance
|   Author:     Muse
|
|   Tempo:      135 BPM
|   Timing:     4/4
|   Tuning:     Standard ( E A D G B e )
|


[Outro]

   Am  x16          G  x16           F  x16           E  x8

e||-5--------------|-3--------------|-1--------------|-1--------------|
B||-5--------------|-3--------------|-1--------------|-0--------------|
G||-5--------------|-4--------------|-2--------------|-1--------------|
D||-7--------------|-5--------------|-3--------------|-2--------------|
A||-7--------------|-5--------------|-3--------------|-2--------------|
E||-5--------------|-3--------------|-1--------------|-0--------------|


   E  x8            Am  x8           Am6  x8          G  x16

e||-0--------------|-0--------------|-2--------------|-3--------------|
B||-0--------------|-1--------------|-1--------------|-3--------------|
G||-1--------------|-2--------------|-2--------------|-4--------------|
D||-2--------------|-2--------------|-2--------------|-5--------------|
A||-2--------------|-0--------------|-0--------------|-5--------------|
E||-0--------------|-x--------------|-x--------------|-3--------------|


   F9  x8           F  x8            E  x1

e||-3--------------|-1--------------|-0~-------------|----------------|
B||-1--------------|-1--------------|-0~-------------|----------------|
G||-2--------------|-2--------------|-1~-------------|----------------|
D||-1--------------|-3--------------|-2~-------------|----------------|
A||-3--------------|-3--------------|-2~-------------|----------------|
E||-1--------------|-0--------------|-0~-------------|----------------|

                                      ^ Let it ring

***********************************

  ~   Vibrato
  x   Dead note

***********************************
Suggest correction
Give kudos to tab author, rate the tab!
1 2 3 4 5
comments
print report bad tab
guest
You may want to rate the tab now too:
select rating
Wanna post a correction for this tab? Suggest correction