Oops, an error
Loading. Please wait.

Resistance Tab

version 2
version 2

Whole song

Interactive

by Muse
27,827 views 12 this week
6 commentsread comments
1 2 3 4 5
accurate
x 8
add to favorites
launch autoscroll
font size
0
reset
how to read this tab
guitar tuner
Autoscroll
slow
fast
+/-
esc
set tempo
stop
Help us to improve Ultimate-Guitar.com Take our survey!
×
Author
Difficulty
novice
-------------------------------------------------------------------------------
                             RESISTANCE - Muse
-------------------------------------------------------------------------------
Tabbed by: halvies
Email: stoogemaster333@hotmail.com

Tuning: Standard (EADGBe)

Intro (0:42 - 1:11)

e|---------------------------------------------------------------------------|
B|---------------------------------------------------------------------------|
G|--------7--------------------------------7--------7-9-10-9-7-9-------9-7---|
D|-7-9-10----10-9-10-7-----6-7-9-10--9-7-9-------10-------------10---------10|
A|---------------------------------------------------------------------------|
E|---------------------------------------------------------------------------|

e|---------------------------------------------------------------------------|
B|---------------------------------------------------------------------------|
G|---7-----------------------------------------------------------------------|
D|9---10-9-7---10p9-7--------------------------------------------------------|
A|---------------------------------------------------------------------------|
E|---------------------------------------------------------------------------|

e|---------------------------------------------------------------------------|
B|---------------------------------------------------------------------------|
G|--------7--------------------------------7--------7-9-10-9-7-9-------9-7---|
D|-7-9-10----10-9-10-7-----6-7-9-10--9-7-9-------10-------------10---------10|
A|---------------------------------------------------------------------------|
E|---------------------------------------------------------------------------|

e|---------------------------------------------------------------------------|
B|---------------------------------------------------------------------------|
G|---7-----------------------------------------------------------------------|
D|9---10-9-7---10p9-7--------------------------------------------------------|
A|---------------------------------------------------------------------------|
E|---------------------------------------------------------------------------|

This is the synthy/ambient part during the verse (1:14 - 1:39)

e|---------------------------------------------------------------------------|
B|---------------------------------------------------------------------------|
G|---------------------------------------------------------------------------|
D|-10------------9--------------7------------6-------------------------------|
A|---------------------------------------------------------------------------|
E|---------------------------------------------------------------------------|

(1:40 - 2:05)

e|---------------------------------------------------------------------------|
B|---------------------------------------------------------------------------|
G|-10-10-10-10-----10-10-10-----10-10-10-10-9-9------9--9--9-9-----9--9-9----|
D|-10-10-9--10-----10-9--10-----10-9--10-12-9-10-----10-10-9-10----10-9-10---|
A|---------------------------------------------------------------------------|
E|---------------------------------------------------------------------------|

e|---------------------------------------------------------------------------|
B|---------------------------------------------------------------------------|
G|-9--9-9--9--7-7-----7-7-7-7-----7-7-7-----7-7-7-7--5-5-----5-5-5-5----5-5-5|
D|-10-9-10-12-7-9-----9-9-7-9-----9-7-9-----9-7-9-10-5-7-----7-7-5-7----7-5-7|
A|---------------------------------------------------------------------------|
E|---------------------------------------------------------------------------|

e|-----------------------------------------------------------------------------|
B|-----------------------------------------------------------------------------|
G|-5-5-5-----------------------------------------------------------------------|
D|-7-5-7-9-7-10 Then repeat from start again-----------------------------------|
A|-----------------------------------------------------------------------------|
E|-----------------------------------------------------------------------------|

Prechorus (2:06 - 2:08) *Palm muted*

e|1-1-1-1-1-1-1-1----------------------------------------------------------------------|
B|1-1-1-1-1-1-1-1----------------------------------------------------------------------|
G|2-2-2-2-2-2-2-2----------------------------------------------------------------------|
D|3-3-3-3-3-3-3-3----------------------------------------------------------------------|
A|-------------------------------------------------------------------------------------|
E|-------------------------------------------------------------------------------------|

Chorus (2:07 - 2:34)

Love is our resistance
               C
They'll keep us apart but they won't stop breaking us down
                                                           G   F
Hold me
Am
Our lips must always be sealed
                        F          E

It is the same for the next verse and chorus until the end of the second chorus where it 
rid of the final E and goes:

(4:05 - 4:38)

The night has reached its end
F              C
We can't pretend
   G
We must run
        F    Am   G
We must run
        F    Am   G
It's time to run
        F    Am   G   E   F

(4:38 - 4:48)

Take us away from here
A              Dm
Protect us from further harm
A              Dm            C

e|----------------------------------------------------------------------------|
B|----------------------------------------------------------------------------|
G|----------------------------------------------------------------------------|
D|-5-5-5-5-5-5-5-5-7-7-7-7-7-7-7-7-9-9-9-9-10-10-10-10-12-12-12-12-15-15-15-15|
A|-5-5-5-5-5-5-5-5-7-7-7-7-7-7-7-7-9-9-9-9-10-10-10-10-12-12-12-12-15-15-15-15|
E|-3-3-3-3-3-3-3-3-5-5-5-5-5-5-5-5-7-7-7-7--8--8--8--8-10-10-10-10-13-13-13-13|

Finish on:

e|---------------------------------------------------------------------------|
B|---------------------------------------------------------------------------|
G|---------------------------------------------------------------------------|
D|---------------------------------------------------------------------------|
A|---------------------------------------------------------------------------|
E|-12------------------------------------------------------------------------|

That's it! Pretty simple. Any issues leave a comment!


| /  slide up
| \  slide down
| h  hammer-on
| p  pull-off
| ~  vibrato
| +  harmonic
| x  Mute note
===============================================================================
Suggest correction
comments
print report bad tab
6 comments total. Showing first comments.
+1 reply
Gavage 10 wrote on December 7 2009, 03:59 pm

Wrong, not horribly wrong, but just wrong

+2 reply
halvies 81 wrote on December 22 2009, 07:30 pm

Care to elaborate, Gavage?

+1 reply
halvies 81 wrote on December 27 2009, 03:55 pm

Just a note, for some reason, the tab has put the chords below the lyrics, so when you get to the chorus, the chords are below the lyrics rather than on top

guest
You may want to rate the tab now too:
select rating
Wanna post a correction for this tab? Suggest correction