Oops, an error
Loading. Please wait.

Resistance Bass Tab

version 3
version 3

Whole song

Interactive

by Muse
80,694 views 123 this week
8 commentsread comments
1 2 3 4 5
x 56
add to favorites
launch autoscroll
font size
0
reset
guitar tuner
Autoscroll
slow
fast
+/-
esc
set tempo
stop
Help us to improve Ultimate-Guitar.com Take our survey!
×
Author
Artist: Muse
Song: Resistance
Album: The Resistance
Tabber: Michael H

Intro (no bass)

[Verse]

(0:46)
G|---------------------------------------|
D|---------------------------------------|
A|--12-(x32)-10-(x32)-8-(x32)-7-(x32)----| x3
E|---------------------------------------|

G|---------------------------------------|
D|---------------------------------------|
A|--12-(x32)-10-(x32)-8-(x32)------------|
E|---------------------------------------|


[Pre-Chorus 1]

(1:41)
G|----------------10--10--9-9h10p9-------|
D|-------------10------------------10----|
A|-8-8-7-8---8------------------------12-|
E|---------------------------------------|

G|--------------------14--14-12-12h14p12-------|
D|-----------------14--------------------14----|
A|-12-12-10-12--12--------------------------10-|
E|---------------------------------------------|

G|-------------------12--12-11-11h12p11--------|
D|----------------12--------------------12-----|
A|-10-10-9-10--10--------------------------8---|
E|---------------------------------------------|

G|----------------10--10--9-9h10p9-------|
D|-------------10------------------10----|
A|-8-8-7-8---8------------------------8--|
E|---------------------------------------|

G|----------------10--10--9-9h10p9-------|
D|-------------10------------------10----|
A|-8-8-7-8---8------------------------12-|
E|---------------------------------------|

G|--------------------14--14-12-12h14p12-------|
D|-----------------14--------------------14----|
A|-12-12-10-12--12--------------------------10-|
E|---------------------------------------------|

G|-------------------12--12-11-11h12p11--------|
D|----------------12--------------------12-----|
A|-10-10-9-10--10--------------------------8---|
E|---------------------------------------------|

G|---------------------------------------|
D|---------------------------------------|
A|-8-8-7-8---------------x-x-x-x-x-x-x-x-|
E|---------------------------------------|
[turn on fuzz]


[Chorus 1]

(2:08)
G|---------------------------------------|
D|---------------------------------------|
A|---------------------------------------|
E|-8-(x32)--3-(x16)--5-(x24)--3-(x8)-----|

G|-------------------------10--10--9-9h10p9-------|
D|----------------------10------------------10----|
A|--------/-8-8-7-8---8------------------------7~-|
E|-1-(x16)----------------------------------------|
[turn off fuzz]


[Verse 2]

(2:36)
G|---------------------------------------|
D|---------------------------------------|
A|--12-(x32)-10-(x32)-8-(x32)-7-(x32)----| x2
E|---------------------------------------|

G|---------------------------------------|
D|---------------------------------------|
A|--12-(x32)-10-(x32)-8-(x32)------------|
E|---------------------------------------|


[Pre-Chorus 2]

(3:15)
G|----------------10--10--9-9h10p9-------|
D|-------------10------------------10----|
A|-8-8-7-8---8------------------------12-|
E|---------------------------------------|

G|--------------------14--14-12-12h14p12-------|
D|-----------------14--------------------14----|
A|-12-12-10-12--12--------------------------10-|
E|---------------------------------------------|

G|-------------------12--12-11-11h12p11--------|
D|----------------12--------------------12-----|
A|-10-10-9-10--10--------------------------8---|
E|---------------------------------------------|

G|----------------10--10--9-9h10p9-------|
D|-------------10------------------10----|
A|-8-8-7-8---8------------------------8--|
E|---------------------------------------|

G|----------------10--10--9-9h10p9-------|
D|-------------10------------------10----|
A|-8-8-7-8---8------------------------12-|
E|---------------------------------------|

G|--------------------14--14-12-12h14p12-------|
D|-----------------14--------------------14----|
A|-12-12-10-12--12--------------------------10-|
E|---------------------------------------------|

G|-------------------12--12-11-11h12p11--------|
D|----------------12--------------------12-----|
A|-10-10-9-10--10--------------------------8---|
E|---------------------------------------------|

G|---------------------------------------|
D|---------------------------------------|
A|-8-8-7-8---------------x-x-x-x-x-x-x-x-|
E|---------------------------------------|
[turn on fuzz]


[Chorus 2]

(3:46)
G|---------------------------------------|
D|---------------------------------------|
A|---------------------------------------|
E|-8-(x32)--3-(x16)--5-(x24)--3-(x8)-----|

G|---------------------------------------|
D|---------------------------------------|
A|----------3~---------------------------|
E|-1-(x32)----------------3~-------------|
[turn off fuzz]


[Bridge 1]

(4:19)
This goes kinda fast!
G|----------------9h10p9-------------|
D|----------10-10---------10---------|
A|-8-(x10)---------------------------|
E|-----------------------------------|

(These are 12's)
G|----------------12h14p12-----------|
D|----------14-14----------14--------|
A|-12-(x10)--------------------------|
E|-----------------------------------|

(These are 10's)
G|----------------11h12p11-----------|
D|----------12-12----------12--------|
A|-10-(x10)--------------------------| x2
E|-----------------------------------|

G|----------------9h10p9-------------|
D|----------10-10---------10---------|
A|-8-(x10)---------------------------|
E|-----------------------------------|

(These are 12's)
G|----------------12h14p12-----------|
D|----------14-14----------14--------|
A|-12-(x10)--------------------------|
E|-----------------------------------|

(These are 10's)
G|----------------11h12p11-----------|
D|----------12-12----------12--------|
A|-10-(x10)--------------------------| x2
E|-----------------------------------|

G|----------------9h10p9-------------|
D|----------10-10---------10---------|
A|-8-(x10)---------------------------|
E|-----------------------------------|

(These are 12's)
G|----------------12h14p12-----------|
D|----------14-14----------14--------|
A|-12-(x10)--------------------------|
E|-----------------------------------|

(These are 10's)
G|----------------11h12p11-----------|
D|----------12-12----------12--------|
A|-10-(x10)--------------------------|
E|-----------------------------------|

G|----------------7h9p7--------------|
D|-----------9--9-------9------------|
A|-7-(x10)---------------------------|
E|-----------------------------------|

G|----------------9h10p9-------------|
D|----------10-10---------10---------|
A|-8-(x10)---------------------------|
E|-----------------------------------|
[turn on fuzz]


[Bridge 2]

(4:39)
G|-----------------------------------|
D|-----------------------------------|
A|--------5-(x8)--------5-(x8)-3-(x8)|
E|-5-(x8)--------5-(x8)--------------|

G|--------------------------------------------|
D|--------------------------------------------|
A|--------------------------------------------|
E|-3-(x8)-5-(x8)-7-(x4)-8-(x4)-10-(x4)-13-(x4)|
[turn off fuzz]


[Outro]

(4:58)
G|-----------------------------------|
D|-----------------------------------|
A|-12-(x16)-10-(x16)-8-(x16)-7-(x32)-|
E|-----------------------------------|

(slow down toward the end)
G|-----------------------------------|
D|-----------------------------------|
A|-----------------------------------|
E|-5-(x16)-3-(x16)-1-(x16)-0~~~~-----|



************************************

| x  Dead note
| h  Hammer-on
| p  Pull-off
| /  Slide up
| ~  Vibrato

************************************
Suggest correction
comments
print report bad tab
8 comments total. Showing first comments.
0 reply
slopit12 21 Sep 23, 2009 08:27 PM

Finally a tab that sounds correct in the chorus!!! Thanks for this!

+3 reply
JamminBoy 199 Sep 28, 2009 04:30 PM

Brilliant! Just love the bridge and prechorus! Just one thing near the end of the chorus, I think the F note is played in octaves like so
G|-------------------------------------|
D|-----------3--3-----------3--3-------|
A|-------------------------------------|
E|-1-1-1-1-1------1-1-1-1-1------------|

5 stars anyway :P

0 reply
mikehabibi 50 Sep 29, 2009 09:44 PM

yes you're right about the chorus, I missed that bit. I can't figure out how to edit my tab so I guess I can't =/

guest
You may want to rate the tab now too:
select rating
Wanna post a correction for this tab? Suggest correction