Oops, an error
Loading. Please wait.

Resistance Tab

version 3
version 3

Whole song

Interactive

by Muse
33,570 views 60 this week
no commentswrite comment
1 2 3 4 5
accurate
x 6
add to favorites
launch autoscroll
font size
0
reset
how to read this tab
guitar tuner
Autoscroll
slow
fast
+/-
esc
set tempo
stop
Help us to improve Ultimate-Guitar.com Take our survey!
×
Author
Tuning
D A D G B E
-------------------------------------------------------------------------------
                             Resistance - MUSE
-------------------------------------------------------------------------------
Tabbed by: blurenciel
Email: blurenciel@gmail.com

Tuning: drop-D

Update log:
28/03/2010 - added riff (based on VMA performance)
30/03/2010 - changed chorus part

watch:
http://bit.ly/b9EOK1
http://bit.ly/8WY5CR
Please rate and comment!! Enjoy!!

*----------Notes--------*
/ - slide up
h - hammer on
p - pull off
*-----------------------*

Intro (2X)
*the piano part
e|--------10-----------------------------------10----10-12-13-12-10-12-------|
B|--12-13----13-12-13-10-----10-12-13-12-10-12-------------------------13----|
G|9------------------------9----------------------12-------------------------|
D|---------------------------------------------------------------------------|
A|---------------------------------------------------------------------------|
D|---------------------------------------------------------------------------|


e|-12-10-------10------------------------------------------------------------|
B|-------13-12----13-12-10-12p10-9-------------------------------------------|
G|---------------------------------------------------------------------------|
D|---------------------------------------------------------------------------|
A|---------------------------------------------------------------------------|
D|---------------------------------------------------------------------------|

Verse
*i can't really hear any guitar in the verse but i normally play by chords or..
Is our secret safe tonight...or will the walls start caving in?
e|---------------------------------------------------------------------------|
B|-13-----------12--------10----9----12--------------------------------------|
G|---------------------------------------------------------------------------|
D|---------------------------------------------------------------------------|
A|---------------------------------------------------------------------------|
D|---------------------------------------------------------------------------|

Pre-chorus
It could be wrong...It could be wrong could be....
 |<--------------REPEAT 2X------------------------>|
   F5             Am            G                 F      F(PM)
e|---------------------------------------------------------------------------|
B|---------------------------------------------------------------------------|
G|-10-------------9----------7--7--------------5--5------10------------------|
D|-10-------------10----------7-9---------------5-7------10------------------|
A|-------------------------------------------------------8-------------------|
D|---------------------------------------------------------------------------|
*refer to the song please..

Chorus
              C
Love is our resistance
                                                        G
They'll keep us apart and they wont to stop breaking us down
Am
Hold me
              G         F
our lips must always be sealed

-or-

   C               Csus4           C                 C
e|-------------------------------------------------------------------|
B|-------------------------------------------------------------------|
G|-9-9-9-9-9-9-9-9-10101010101010109-9-9-9-9-9-9-9-101212121212121212|
D|-101010101010101010101010101010101010101010101010101010101010101010|
A|-8-8-8-8-8-8-8-8-8-8-8-8-8-8-8-8-8-8-8-8-8-8-8-8-8-1010101010101010|
D|-------------------------------------------------------------------|

   G                             Am      G       Am  G   F   
e|-----------------------------------------------------------------------|
B|-------------------------------1111111133333333------------------------|
G|-12121212121212121010109-9-9-772222222244444444555577779-9-9-9-12121212|
D|-1212121212121212101010101010992222222255555555777799991010101012121212|
A|-1010101010101010------------------------------------------------------|
D|-----------------------------------------------------------------------|

   F
e|---------------------------------|
B|---------------------------------|
G|-17171717171717171717171717171717|
D|-15151515151515151515151515151515|
A|-15151515151515151515151515151515|
D|---------------------------------|

   F                         E (let ring)
e|-----------------------------|
B|-----------------------------|
G|-10101010-101010-10101010109-|
D|-10101010-101010-10101010109-|
A|-----------------------------|
D|-----------------------------|


Riff
e|---------------------------------------------------------------------------|
B|---------------------------------------------------------------------------|
G|-9h10p9-7h9p75--45/7-5453/5--45/7-545--------------------------------------|
D|-------------------------------------7-679---------------------------------|
A|--------------7------------7-----------------------------------------------|
D|---------------------------------------------------------------------------|

Verse ->
Pre-chorus ->
Chorus ->

Bridge
              C
The night has reached it's end
   G
We can't pretend
        F   Am   G
We must run
        F   Am   G
We must run
            F  Am   G   E   F   Am
Its time to run

Outro
             Dm
Take us away from here
   Am              Dm       C
Protect us from further harm
  G5  A5  B5  C5  D5  F5
Resistance

*for the last part
   G5        A5        B5        C5         D5         F5
e|---------------------------------------------------------------------------|
B|---------------------------------------------------------------------------|
G|---------------------------------------------------------------------------|
D|-5---------7---------9---------10---------12---------15--------------------|
A|-5---------7---------9---------10---------12---------15--------------------|
D|-5---------7---------9---------10---------12---------15--------------------|



blurenciel2010
26032010
1303
Suggest correction
comments
print report bad tab
guest
You may want to rate the tab now too:
select rating
Please do not post tabs as comments. Select "correction" instead!