Oops, an error
Loading. Please wait.
We have an official Revolt tab made by UG professional guitarists. Check out the tab »
×
by Muse
16,754 views 12 this week
1 commentread comment
1 2 3 4 5
x 13
add to favorites
×
Save as Personal and add changes to this tab that will be seen only by you. Learn more ›
×
You can save this tab as Personal to edit and correct it or add notes. All changes will be seen only by you. Learn more »
launch autoscroll
font size
0
reset
how to read this tab
guitar tuner
backing track
0:00
0:00
edit
Autoscroll
slow
fast
+/-
esc
set tempo
stop
Author
Difficulty
intermediate
-------------------------------------------------------------------------------
                             Revolt - Muse
-------------------------------------------------------------------------------

Tuning: Standard - EADGBe

[Intro:]

e|--------------------------|-------------------------------------------------|
B|--/15 ~-------------------|-------------------------------------------------|
G|--------------------------|-------------------------------------------------|
D|--------------------------|-------------------------------------------------|
A|--------------------------|--------------3---5------------------------------|
E|--------------------------|-----------------------3*------------------------|

*Let this note ring into the first few bars of the verse. 


[Verse:] (This applies to verse 2 as well).

e|--------------------|--------------------|-------------------|---------------------------||
B|--------------------|--------------------|-------------------|---------------------------||
G|--------------------|--------------------|-------------------|---------------------------||
D|--------------------|----5---------------|-------------------|---------------------------||
A|--------------------|--------5----7------|-(7)-------------3-|----3-----5----------------||
E|-(3)----------------|--------------------|-------------------|----------------3----------|| x4 

(3) = Hold the note from the previous bar (tied note). 

On the 4th time instead of playing the last bar play this instead:

e|-------------------|-------------------|--------------------|------------------0-|----------------------||
B|-------------------|-------------------|--------------------|------------1---1---|-/8-8-8-8-8-8-8-8-----||
G|-------------------|-------------------|--------------------|----------0---0-----|----------------------||
D|-------------------|-------------------|--------------------|--------2-----------|----------------------||
A|--3-----5-----7----|--(7)-----------5--|--(5)-------------3-|-(3)--3-------------|----------------------||
E|-------------------|-------------------|--------------------|--------------------|----------------------||


[Chorus 1:]

I've just put a basic 8th note strumming pattern but listen to the song for the actual pattern!
 
  G                                        F#           Em                         C
e|--------------------------|--------------------------|--3--3--3--3--3--3--3--3--|------------------------||
B|--3--3--3--3--3--3--3--3--|--------------------------|--5--5--5--5--5--5--5--5--|--5--5--5--5--5--5--5--5||
G|--4--4--4--4--4--4--4--4--|--4--4--4--4--------------|--4--4--4--4--4--4--4--4--|--5--5--5--5--5--5--5--5||
D|--5--5--5--5--5--5--5--5--|--5--5--5--5--4--4--4--4--|--2--2--2--2--2--2--2--2--|--5--5--5--5--5--5--5--5||
A|--5--5--5--5--5--5--5--5--|--5--5--5--5--5--5--5--5--|--------------------------|--3--3--3--3--3--3--3--3||
E|--3--3--3--3--3--3--3--3--|--3--3--3--3--2--2--2--2--|--------------------------|------------------------||

Play those 4 bars twice before switching to. 

  G                          D                          Em                         C
e|--------------------------|--2--2--2--2--2--2--2--2--|--3--3--3--3--3--3--3--3--|------------------------||
B|--3--3--3--3--3--3--3--3--|--3--3--3--3--3--3--3--3--|--5--5--5--5--5--5--5--5--|--5--5--5--5--5--5--5--5||
G|--4--4--4--4--4--4--4--4--|--2--2--2--2--2--2--2--2--|--4--4--4--4--4--4--4--4--|--5--5--5--5--5--5--5--5||
D|--5--5--5--5--5--5--5--5--|--4--4--4--4--4--4--4--4--|--2--2--2--2--2--2--2--2--|--5--5--5--5--5--5--5--5||
A|--5--5--5--5--5--5--5--5--|--5--5--5--5--5--5--5--5--|--------------------------|--3--3--3--3--3--3--3--3||
E|--3--3--3--3--3--3--3--3--|--------------------------|--------------------------|------------------------||

  G                          D                          Em                         C
e|--------------------------|--2--2--2--2--2--2--2--2--|--3--3--3--3--3--3--3--3--|------------------------||
B|--3--3--3--3--3--3--3--3--|--3--3--3--3--3--3--3--3--|--5--5--5--5--5--5--5--5--|--5--5--5--5------------||
G|--4--4--4--4--4--4--4--4--|--2--2--2--2--2--2--2--2--|--4--4--4--4--4--4--4--4--|--5--5--5--5------------||
D|--5--5--5--5--5--5--5--5--|--4--4--4--4--4--4--4--4--|--2--2--2--2--2--2--2--2--|--5--5--5--5------------||
A|--5--5--5--5--5--5--5--5--|--5--5--5--5--5--5--5--5--|--------------------------|--3--3--3--3--3--5------||
E|--3--3--3--3--3--3--3--3--|--------------------------|--------------------------|--------------------3---||

[Verse 2] (It's the exact same as verse 1!)

[Chorus 2] (It's once again the exact same as Chorus 1!)


[Guitar Solo Part 1:]

e|------------------------------|-----------------------|-----------------------------|--------------------||
B|--12-----12-----12-----12-----|-----------------------|--12-------12---12----15b17--|--r15p13------------||
G|--14b16--14b16--14b16--14b16--|-r12 ~-----------------|--14b16--14b16--14b16--------|---------14---------||
D|------------------------------|-----------------------|-----------------------------|--------------------||
A|------------------------------|-----------------------|-----------------------------|--------------------||
E|------------------------------|-----------------------|-----------------------------|--------------------||

e|---------------------------------|-----------------|--17b19r15h17p15----15-------------|-----------------||
B|--12-----12-----12--------19b21--|--(21)-----------|-----------------17----17-16-15-17-|-16p15-----------||
G|--14b16--14b16--14b16r12---------|-----------------|-----------------------------------|-------17---{16}-||
D|---------------------------------|-----------------|-----------------------------------|-----------------||
A|---------------------------------|-----------------|-----------------------------------|-----------------||
E|---------------------------------|-----------------|-----------------------------------|-----------------||

{16} = pinch harmonic squealy thing, Matt's probably using his whammy or sustainer. 


[Solo Part 2/Verse 3]

e|------------|--------------------------------|-----------------------|------------------------------------|
B|------------|--12------12-----12-------------|-----------------------|-15b17r13-15-13-12-13-12------------|
G|--(16)------|--14b16---14b16--14b16r12h14p12-|--(12)-----------------|-------------------------14-12-16b17|
D|------------|--------------------------------|-----------------------|------------------------------------|
A|------------|--------------------------------|-----------------------|------------------------------------|
E|------------|--------------------------------|-----------------------|------------------------------------|

e|--------------------------------------|--------------0---0--|---------------------------|
B|--------------------------------------|------------1---1----|-/8-8-8-8-8-8-8-8----------|
G|---15b16--15b16--15b16r15-14--12--12--|-(12)-----0----------|---------------------------|
D|--------------------------------------|--------2------------|---------------------------|
A|--------------------------------------|------3--------------|---------------------------|
E|--------------------------------------|---------------------|---------------------------|


[Chorus 3] is the same as the first 2. End on the

e|--------------------|
B|--------------------|
G|--------------------|
D|--------------------|
A|---3---5------------|
E|-----------3--------| and just allow the G to ring out for a couple of bars.

Structure:

Intro
Verse
Chorus
Verse
Chorus
Solo Part 1
Solo Part 2/Verse 3
Chorus


Hope the solo tab wasn't too confusing but i'm pretty sure this is correct!


************************************

| (n)  Ghost note
| h    Hammer-on
| p    Pull-off
| r    Release
| b    Bend
| /    Slide up

************************************

            
            
Suggest correction
Creating personal tab
Creating personal tab
You can edit any tab online and save it as your Personal.

You can edit, replace or remove any tab part or add personal notes – all changes will be seen only by you.

Personal tabs can be accessed anytime from any device, even offline.
Learn more »
comments
print report bad tab
1 comment total.
+3 reply
elinaholland 53 Sep 25, 2015 09:26 AM

at this part of solo

E||--------------------||
B||--r15p13------------||
G||---------14---------||
D||--------------------||
A||--------------------||
E||--------------------||


it should be like this instead
E||--------------------||
B||--r15p13------------||
G||--------------------||
D||---------14---------||
A||--------------------||
E||--------------------||

guest
You may want to rate the tab now too:
select rating
Wanna post a correction for this tab? Suggest correction