Oops, an error
Loading. Please wait.
We have an official Revolt tab made by UG professional guitarists. Check out the tab »
×
by Muse
1,099 views 3 this week
2 commentsread comments
1 2 3 4 5
x 3
add to favorites
×
Save as Personal and add changes to this tab that will be seen only by you. Learn more ›
×
You can save this tab as Personal to edit and correct it or add notes. All changes will be seen only by you. Learn more »
launch autoscroll
font size
0
reset
guitar tuner
backing track
0:00
0:00
edit
Autoscroll
slow
fast
+/-
esc
set tempo
stop
Author
Difficulty
Band: Muse
Song: Revolt
Album: Drones (2015)
Bassist: Chris Wolstenholme
Tuning: Standard


Verse:

G|-----12---|   |-------------------------|    |----------------------------5-5-5-5-5-5-5-5-5-|
D|10h12-----|   |----------5--------------|    |--------------------2-5-2-5-------------------|
A|----------|   |3-5---------5-7~----3----|    |3-5-7----5---3----3---------------------------|
E|----------| + |----3~-------------------| x4 |----------------3-----------------------------|

Chorus:

G|-----------------------------|------------------------------|
D|5(x12)--4(x4)--2(x8)---------|5(x12)--4(x4)--2(x9)-/10(x6)\-|
A|----------------------3(x8)--|------------------------------|
E|-----------------------------|------------------------------|

G|-----------------------------|------------------------------|
D|---------------2(x8)---------|5(x8)---7(x8)-----------------|
A|--------5(x8)---------3(x8)--|---------------7(x8)--3(x4)---|
E|3(x8)------------------------|------------------------------|

Verse: (same as above without those high notes (first bar))

Chorus: (same as above)

Verse: 

G|-------------------------|    |-------------------------------------------------------5-7-7-7-7-7-7-7-7-|
D|----------5--------------|    |-----------------------------------------------2-5-2-5-------------------|
A|3-5---------5-7~----3----|    |3-5-7----3--3-5-7----3--3-2-0-------0-2-3----3---------------------------|
E|----3~-------------------| x2 |-------------------------------------------3-----------------------------|

Last chorus: (same as before)

Ending:

G|-------------------------|
D|-------------------------|
A|3-5----------------------|
E|----3~-------------------|

/  slide up
\  slide down
h  hammer-on
p  pull-off
~  let ring

            
            
Suggest correction
Creating personal tab
Creating personal tab
You can edit any tab online and save it as your Personal.

You can edit, replace or remove any tab part or add personal notes – all changes will be seen only by you.

Personal tabs can be accessed anytime from any device, even offline.
Learn more »
Give kudos to tab author, rate the tab!
1 2 3 4 5
comments
print report bad tab
2 comments total.
0 reply
jammyjamesm 352 Jun 09, 2015 08:41 AM

Lack of accuracy. I've noticed you've used the wrong notes in the verse, you've stated it starts with an A chord, when it starts with a G. I think the bass at the end of the verse ends on an E, not a C. Similarly, just before the last chorus, I think the bass reaches an F#, rather than a D

0 reply
sjt678 10 Jun 11, 2015 01:19 PM

Lack of accuracy. Lack of accuracy. I've noticed you've used the wrong notes in the verse, you've stated it starts with an A chord, when it starts with a G.

guest
You may want to rate the tab now too:
select rating
Wanna post a correction for this tab? Suggest correction