Oops, an error
Loading. Please wait.

Ruled By Secrecy solo tab

version 1
version 1

Solo

Whole song

Interactive

by Muse
3,357 views 1 this week
6 commentsread comments
1 2 3 4 5
x 4
add to favorites
×
Save as Personal and add changes to this tab that will be seen only by you. Learn more ›
×
You can save this tab as Personal to edit and correct it or add notes. All changes will be seen only by you. Learn more »
launch autoscroll
font size
0
reset
how to read this tab
guitar tuner
edit
Autoscroll
slow
fast
+/-
esc
set tempo
stop
Author
Because the other guy didn`t had it.

           Muse – Ruled by Secrecy piano solo 

Standard Tuning:
  
 (Bass-note: F)            (For a pianist, here are the notes)
e|------4-4-4--6--4-|         e|----Ab-Ab-Ab--Bb--Ab--|  
B|------6-6-6--6--6-|         B|----F--F--F---F---F---|   
G|------5-5-5-—5--5-|  x2     G|----C--C--C---C---C---|
D|-(3)--------------|         D|-F--------------------|  
A|------------------|         A|-C--------------------|
E|------------------|         E|-F--------------------|

 (Bass-note: E)
e|------3-3-3--4--3-|         e|----G--G--G---Ab--G---|
B|------5-5-5--5--5-|         B|----E--E--E---E---E---|
G|------5-5-5--5--5-|  x2     G|----C--C--C---C---C---|
D|-(2)--------------|         D|-E--------------------|
A|------------------|         A|-B--------------------|
E|------------------|         E|-E--------------------|

 (Bass-note: Eb)
e|-----3-3-4--6--4--3-|       e|-----G--G---Ab---Bb---Ab--G--|
B|-----4-4-4--4--4--4-|       B|-----Eb-Eb--Eb---Eb---Eb--Eb-|
G|-----5-5-5--5--5--5-| x2    G|-----C--C---C----C----C---C--|
D|-(1)----------------|       D|-Eb--------------------------| 
A|--------------------|       A|-Bb--------------------------|
E|--------------------|       E|-Eb--------------------------|

 (Bass-note: C)
e|------3-3-3--4--3-|         e|----G--G--G---Ab--G---|
B|------5-5-5--5--5-|         B|----E--E--E---E---E---|
G|------5-5-5--5--5-|  x2     G|----C--C--C---C---C---|
D|------------------|         D|-C--------------------| 
A|-(3)--------------|         A|-G--------------------| 
E|------------------|         E|-G--------------------|

Play this twice.

Alternative version:

e|------------------|
B|--9--9--9--11---9-|
G|-10-10-10--10--10-|  x2
D|-10-10-10--10--10-| 
A|------------------|
E|------------------|
 
e|------------------|
B|--8--8--8---9---8-|
G|--9--9--9---9---9-|  x2
D|-10-10-10--10--10-|
A|------------------|
E|------------------|

e|----------------------|
B|--8--8--9--11---9---8-| x2
G|--8--8--8---8---8---8-|
D|-10-10-10--10--10--10-|
A|----------------------|
E|----------------------|

e|------------------|
B|--8--8--8---9---8-|
G|--9--9--9---9---9-|  x2
D|-10-10-10--10--10-|
A|------------------|   
E|------------------|

(Play everything twice)



            
            
Suggest correction
Creating personal tab
Creating personal tab
You can edit any tab online and save it as your Personal.

You can edit, replace or remove any tab part or add personal notes – all changes will be seen only by you.

Personal tabs can be accessed anytime from any device, even offline.
Learn more »
comments
print report bad tab
6 comments total. Showing first comments.
0 reply
John W 72 May 28, 2007 04:31 AM

Seems perfect to me, a little fiddly but then again it is meant to be on piano

0 reply
MaXiMuse 971 May 28, 2007 04:38 AM

Sorry the second and fourth is this:

(Bass-note: E)
e|------3-3-3--4--3-| e|----G---G----G---Ab----G---|
B|------4-4-4--4--4-| B|----Eb--Eb--Eb---Eb---Eb---|
G|------5-5-5--5--5-| x2 G|----C---C----C----C----C---|
D|-(2)--------------| D|-E-------------------------|
A|------------------| A|-B-------------------------|
E|------------------| E|-E-------------------------|

The fourth time the bassnotes are different.

0 reply
MaXiMuse 971 May 28, 2007 05:44 AM

No again sorry, the 2nd and 4th are correct. The 3rd one is this:

(Bass-note: Eb)
e|-----3-3-4--6--4--3-| e|-----G--G---Ab--Bb--Ab--G--|
B|-----4-4-4--4--4--4-| B|-----Eb-Eb--Eb--Eb--Eb--Eb-|
G|-----5-5-5--5--5--5-| x2 G|------C--C---C---C---C---C-|
D|-(1)----------------| D|-Eb------------------------|
A|--------------------| A|-Bb------------------------|
E|--------------------| E|-Eb------------------------|

I don`t know if you can update a tab (I aready asked so)
If you can it will be the fist thing I do

guest
You may want to rate the tab now too:
select rating
Wanna post a correction for this tab? Suggest correction