Oops, an error
Loading. Please wait.

Ruled By Secrecy Tab

version 2
version 2

Whole song

Interactive

by Muse
2,376 views 9 this week
2 commentsread comments
1 2 3 4 5
please rate
add to favorites
launch autoscroll
font size
0
reset
how to read this tab
guitar tuner
Autoscroll
slow
fast
+/-
esc
set tempo
stop
Help us to improve Ultimate-Guitar.com Take our survey!
×
Author
It's really long, but I'm pretty sure it's accurate. Since it's meant for piano 
and I'm not sure it's tabbed right (first ever tab) I have the notes off to the side.

Intro:

Right Hand:

E|-8------------8-----------|8-----------8-------------| 
B|---9---------9--9--------9|--9--------9--9---------9-|
G|-----12----12----12----12-|---12----12-----12----12--|
D|--------15----------15----|------15-----------15-----|
A|--------------------------|--------------------------|
E|--------------------------|--------------------------|

OR C, Ab, G, F, G, Ab repeated 4x

Left Hand:

Rest

Right Hand:

E|-8------------8-----------|8-----------8-------------| 
B|---9---------9--9--------9|--9--------9--9---------9-|
G|-----12----12----12----12-|---12----12-----12----12--|
D|--------15----------15----|------15-----------15-----|
A|--------------------------|--------------------------|
E|--------------------------|--------------------------|

OR C, Ab, G, F, G, Ab repeated 4x

Left Hand:

E|--------------------------|--------------------------| 
B|-------1-----------1------|-----1------------1-------|
G|-----1---1-------1---1----|---1---1-------1-----1----|
D|---3-------3---3-------3--|-3-------3---3---------3--|
A|-3-----------3------------|3----------3--------------|
E|--------------------------|--------------------------|

OR C, F, Ab, C, Ab, F repeated 4x

Verse:

Right Hand:

E|-8------------8-----------|8-----------8-------------| 
B|---9---------9--9--------9|--9--------9--9---------9-|
G|-----12----12----12----12-|---12----12-----12----12--|
D|--------15----------15----|------15-----------15-----|
A|--------------------------|--------------------------|
E|--------------------------|--------------------------|

OR C, Ab, G, F, G, Ab repeated 4x

Left Hand:

E|--------------------------|--------------------------|
B|-------1-----------1------|------1-----------1-------|
G|-----1---1-------1---1----|----1---1-------1---1-----|
D|-1-3-------3-1-3-------3--|1-3-------3-1-3-------1---|
A|--------------------------|--------------------------|
E|--------------------------|--------------------------|

OR Eb, F, Ab, C, Ab, F repeated 4x

Right Hand:

E|-8------------8-----------|8------------8------------| 
B|---9--------9---9-------9-|--9--------9---9--------9-|
G|-----12---12-----12---12--|----12---12------12---12--|
D|--------14----------14----|-------14-----------14----|
A|--------------------------|--------------------------|
E|--------------------------|--------------------------|

OR C, Ab, G, E, G, Ab repeated 4x

Left Hand:

E|--------------------------|--------------------------| 
B|--------1-----------1-----|------1-----------1-------|
G|-----0----0-------0---0---|----0---0-------0---0-----|
D|---2--------2---2-------2-|--2-------2---2-------2---|
A|-3------------3-----------|3-----------3-------------|
E|--------------------------|--------------------------|

OR C, E, G, C, G, E repeated 4x

Right Hand:

E|-8------------8-----------|8-----------8-------------| 
B|---9--------9---9-------9-|--9-------9---9---------9-|
G|-----12---12-----12---12--|---12---12------12---12---|
D|--------13----------13----|------13----------13------|
A|--------------------------|--------------------------|
E|--------------------------|--------------------------|

OR C, Ab, G, Eb, G, Ab repeated 4x

Left Hand:

E|--------------------------|--------------------------| 
B|-------1----------1-------|----1-----------1---------|
G|-----0---0------0---0-----|--0---0-------0---0-------|
D|---1-------1---1------1---|--1-------1---1-------2---|
A|-3-----------3------------|3-----------3-------------|
E|--------------------------|--------------------------|

OR C, Eb, G, C, G, Eb repeated 4x

Right Hand:

E|-8------------8-----------|8------------8------------| 
B|---9--------9---9-------9-|--9--------9---9--------9-|
G|-----12---12-----12---12--|----12---12------12---12--|
D|--------14----------14----|-------14-----------14----|
A|--------------------------|--------------------------|
E|--------------------------|--------------------------|

OR C, Ab, G, E, G, Ab repeated 4x

Left Hand:

E|--------------------------|--------------------------| 
B|--------1-----------1-----|------1-----------1-------|
G|-----0----0-------0---0---|----0---0-------0---0-----|
D|---2--------2---2-------2-|--2-------2---2-------2---|
A|-3------------3-----------|3-----------3-------------|
E|--------------------------|--------------------------|

OR C, E, G, C, G, E repeated 4x

Right Hand:

E|-8------------8-----------|8-----------8-------------| 
B|---9---------9--9--------9|--9--------9--9---------9-|
G|-----12----12----12----12-|---12----12-----12----12--|
D|--------15----------15----|------15-----------15-----|
A|--------------------------|--------------------------|
E|--------------------------|--------------------------|

OR C, Ab, G, F, G, Ab repeated 4x

Left Hand:

E|--------------------------|--------------------------| 
B|-------1-----------1------|------1-----------1-------|
G|-----1---1-------1---1----|----1---1-------1---1-----|
D|-1-3-------3-1-3-------3--|1-3-------3-1-3-------3---|
A|--------------------------|--------------------------|
E|--------------------------|--------------------------|

OR Eb, F, Ab, C, Ab, F repeated 4x

Right Hand:

E|-8------------8-----------|8------------8------------| 
B|---9--------9---9-------9-|--9--------9---9--------9-|
G|-----12---12-----12---12--|----12---12------12---12--|
D|--------14----------14----|-------14-----------14----|
A|--------------------------|--------------------------|
E|--------------------------|--------------------------|

OR C, Ab, G, E, G, Ab repeated 4x

Left Hand:

E|--------------------------|--------------------------| 
B|--------1-----------1-----|------1-----------1-------|
G|-----0----0-------0---0---|----0---0-------0---0-----|
D|---2--------2---2-------2-|--2-------2---2-------2---|
A|-3------------3-----------|3-----------3-------------|
E|--------------------------|--------------------------|

OR C, E, G, C, G, E repeated 4x

Right Hand:

E|-8------------8-----------|8-----------8-------------| 
B|---9--------9---9-------9-|--9-------9---9---------9-|
G|-----12---12-----12---12--|---12---12------12---12---|
D|--------13----------13----|------13----------13------|
A|--------------------------|--------------------------|
E|--------------------------|--------------------------|

OR C, Ab, G, Eb, G, Ab repeated 4x

Left Hand:

E|--------------------------|--------------------------| 
B|-------1----------1-------|----1-----------1---------|
G|-----0---0------0---0-----|--0---0-------0---0-------|
D|---1-------1---1------1---|--1-------1---1-------2---|
A|-3-----------3------------|3-----------3-------------|
E|--------------------------|--------------------------|

OR C, Eb, G, C, G, Eb repeated 4x

Right Hand:

E|-8------------8-----------|8------------8------------| 
B|---9--------9---9-------9-|--9--------9---9--------9-|
G|-----12---12-----12---12--|----12---12------12---12--|
D|--------14----------14----|-------14-----------14----|
A|--------------------------|--------------------------|
E|--------------------------|--------------------------|

OR C, Ab, G, E, G, Ab repeated 4x

Left Hand:

E|--------------------------|--------------------------| 
B|--------1-----------1-----|------1-----------1-------|
G|-----0----0-------0---0---|----0---0-------0---0-----|
D|---2--------2---2-------2-|--2-------2---2-------2---|
A|-3------------3-----------|3-----------3-------------|
E|--------------------------|--------------------------|

OR C, E, G, C, G, E repeated 4x

Chorus:

Right Hand:

E|-10----------10-----------|10----------10------------| 
B|---9-------9---9-------9--|--9-------9--9-------9----|
G|----12---12-----12---12---|---12---12----12---12-----|
D|-------15----------15-----|------15---------15-------|
A|--------------------------|--------------------------|
E|--------------------------|--------------------------|

OR Db, Ab, G, F, G, Ab repeated 4x

Left Hand:

E|--------------------------|--------------------------| 
B|-------3-----------3------|----3---------3-----------|
G|-----2---2-------2--2-----|--2--2------2--2----------|
D|---3-------3---3------3---|-3-----3---3-----3--------|
A|--4----------4------------|4---------4---------------|
E|--------------------------|--------------------------|

OR Db, F, Ab, D, Ab, F repeated 4x

Right Hand:

E|-10-----------11----------|--11----------11----------| 
B|---11-9--9-11---11-9--9-11|---11-9--9-11--11-9--9-11-|
G|--------------------------|--------------------------|
D|-------15-----------15----|-------15----------15----|
A|--------------------------|--------------------------|
E|--------------------------|--------------------------|

OR D, Bb, Ab, F, Ab, Bb repeated 4x

Left Hand:

E|--------------------------|--------------------------| 
B|--------------------------|--------------------------|
G|-----2-3-2-------2-3-2----|---2-3-2-------2-3-2------|
D|-0-3-------3-0-3-------3--|0-3-------3-0-3------3----|
A|--------------------------|--------------------------|
E|--------------------------|--------------------------|

OR D, F, Ab, Bb, Ab, F repeated 4x

Right Hand:

E|-11-----------11----------|9-------------9-----------| 
B|---11-8---8-11--11-8--8-11|--11-8---8-11--11-8---8-11|   
G|--------------------------|--------------------------|
D|--------13----------13----|-------13----------13-----|
A|--------------------------|--------------------------|
E|--------------------------|--------------------------|

OR Eb, Bb, G, Eb, G, Bb repeated 2x,
   Db, Bb, G, Eb, G, Bb repeated 2x

Left Hand:

E|--------------------------|--------------------------| 
B|--------------------------|--------------------------|
G|----0-3-0-----0-3-0-------|---0-3-0--------0-3-0-----|
D|---1-----1---1-----1---1--|--1-----1-----1------1----|
A|-1---------1--------------|1-----------1-------------|
E|--------------------------|--------------------------|

OR Bb, Eb, G, Bb, G, Eb repeated 4x

Right Hand:

E|-8------------8-----------|8------------8------------| 
B|--11-8---8-11---11-8--8-11|--11-8---8-11--11-8--8-11-|
G|--------------------------|--------------------------|
D|------14------------14----|-------14----------14-----|
A|--------------------------|--------------------------|
E|--------------------------|--------------------------|

OR C, Bb, G, E, G, Bb repeated 4x

Left Hand:

E|--------------------------|--------------------------| 
B|--------1-----------1-----|------1-----------1-------|
G|-----0----0-------0---0---|----0---0-------0---0-----|
D|---2--------2---2-------2-|--2-------2---2-------2---|
A|-3------------3-----------|3-----------3-------------|
E|--------------------------|--------------------------|

OR C, E, G, C, G, E repeated 4x

Right Hand:

E|-8------------8-----------|8-----------8-------------| 
B|---9---------9--9--------9|--9--------9--9---------9-|
G|-----12----12----12----12-|---12----12-----12----12--|
D|--------15----------15----|------15-----------15-----|
A|--------------------------|--------------------------|
E|--------------------------|--------------------------|

OR C, Ab, G, F, G, Ab repeated 4x

Left Hand:

E|--------------------------|--------------------------| 
B|-------1-----------1------|------1------------1------|
G|-----1---1-------1---1----|----1---1-------1-----1---|
D|---3-------3---3-------3--|--3-------3---3---------3-|
A|-3-----------3------------|3-----------3-------------|
E|--------------------------|--------------------------|

OR C, F, Ab, C, Ab, F repeated 4x

Right Hand:

E|-9------------9-----------|9----------9-----------9--|* 
B|---11------11--11------11-|-11------11--11------11---|*  
G|-----12--12------12--12---|---12--12------12--12-----|*
D|-------14----------14-----|-----13----------13-------|*
A|--------------------------|--------------------------|*
E|--------------------------|--------------------------|*

OR Db, Bb, G, E, G, Bb repeated 2x
   DB, Bb, G, Eb, G, Bb repeated 2x

Left Hand:

E|--------------------------|--------------------------|*
B|--------------------------|--------------------------|*  
G|-----0-3-0-------0-3-0----|----0-3-0-------0-3-0-----|*
D|---2-------2---2-------2--|--1-------1---1-------1---|*
A|-4-----------4------------|4---------4---------------|*
E|--------------------------|--------------------------|*

OR Db, E, G, Bb, G, E repeated 2x
   Db, Eb, G, Bb, G, E repeated 2x

Right Hand:

E|-11----------11---------11|11----------11----------11| 
B|---13------13--13------13-|--13------13--13------13--|    
G|-----13--13------13--13---|----12--12------12--12----|
D|-------13----------13-----|------13----------13------|
A|--------------------------|--------------------------|
E|--------------------------|--------------------------|

OR Eb, C, Ab, Eb, Ab, C repeated 2x
   Eb, C, G, Eb, Ab, C repeated 2x

Left Hand:

E|--------------------------|--------------------------| 
B|-------1-----------1------|------1-----------1-------|    
G|-----1---1-------1---1----|----0---0-------0---0-----|
D|---1-------1---1-------1--|--1-------1---1-------1---|
A|-3-----------3------------|3-----------3-----------3-|
E|--------------------------|--------------------------|

OR C, Eb, Ab, C, Eb, Ab repeated 2x
   C, Eb, G, C, G, Eb repeated 2x

Right Hand:

E|-10-----------10----------|10----------10----------10| 
B|---10------10---10------10|--10------10--10------10--|
G|-----11--11-------11--11--|----11--11------11--11----|
D|-------12-----------12----|------12----------12------|
A|--------------------------|--------------------------|
E|--------------------------|--------------------------|

OR D, A, F#, D, F#, A repeated 4x

Left Hand:

E|--------------------------|--------------------------| 
B|--------------------------|--------------------------|
G|-------2-----------2------|------2-----------2-------|
D|---0-4---4-0---0-4---4-0--|--0-4---4-0---0-4---4-0---|
A|-3-----------3------------|3-----------3-------------|
E|--------------------------|--------------------------|

OR C, D, F#, A, F#, D repeated 4x

First Ending:

Right Hand:

E|-8------------8-----------|8-----------8-------------| 
B|---9---------9--9--------9|--9--------9--9---------9-|
G|-----12----12----12----12-|---12----12-----12----12--|
D|--------15----------15----|------15-----------15-----|
A|--------------------------|--------------------------|
E|--------------------------|--------------------------|

OR C, Ab, G, F, G, Ab repeated 4x

Left Hand:

E|--------------------------|--------------------------| 
B|-------1-----------1------|-----1------------1-------|
G|-----1---1-------1---1----|---1---1-------1-----1----|
D|---3-------3---3-------3--|-3-------3---3---------3--|
A|-3-----------3------------|3-----------3-------------|
E|--------------------------|--------------------------|

OR C, F, Ab, C, Ab, F repeated 4x

Right Hand:

E|-8------------8-----------|8-----------8-------------| 
B|---9---------9--9--------9|--9--------9--9---------9-|
G|-----12----12----12----12-|---12----12-----12----12--|
D|--------15----------15----|------15-----------15-----|
A|--------------------------|--------------------------|
E|--------------------------|--------------------------|

OR C, Ab, G, F, G, Ab repeated 4x

Left Hand:

E|--------------------------|--------------------------| 
B|-------1-----------1------|-----1------------1-------|
G|-----1---1-------1---1----|---1---1-------1-----1----|
D|---3-------3---3-------3--|-3-------3---3---------3--|
A|-3-----------3------------|3-----------3-------------|
E|--------------------------|--------------------------|

OR C, F, Ab, C, Ab, F repeated 4x

(Go back to verse, play verse-chorus, then go to second ending)

Second Ending (solo):

Right Hand:

E|----8--8--8---------------|---8--8--8----------------| 
B|----9--9--9----11---9-----|---9--9--9----11---9------|
G|----10-10-10---10---10----|---10-10-10---10---10-----|
D|----10-10-10---10---10----|---10-10-10---10---10-----|
A|--------------------------|--------------------------|
E|--------------------------|--------------------------|

OR CAbFC, CAbFC, CAbFC, BbFC, AbFC repeated 2x

Left Hand:

E|----------1---------------|-----------1--------------| 
B|----------1---------------|-----------1--------------|
G|----------1---------------|-----------1--------------|
D|-3------------------------|3-------------------------|
A|--------------------------|--------------------------|
E|-1------------------------|1-------------------------|

OR FF, AbCF repeated 2x

Right Hand:

E|--------------------------|--------------------------| 
B|----8--8--8----9---8------|---8--8--8----9---8-------|
G|----9--9--9----9---9------|---9--9--9----9---9-------|
D|----10-10-10---10--10-----|---10-10-10---10--10------|
A|--------------------------|--------------------------|
E|--------------------------|--------------------------|

OR GEC, GEC, GEC, AbEC, GEC repeated 2x

Left Hand:

E|----------0---------------|----------0---------------| 
B|----------1---------------|----------1---------------|
G|----------0---------------|----------0---------------|
D|-2------------------------|2-------------------------|
A|--------------------------|--------------------------|
E|-0------------------------|0-------------------------|

OR EE, GCE repeated 2x

Right Hand:

E|--------------------------|--------------------------|
B|---8--8--9---11---9---8---|--8--8--9---11---9---8----|
G|---8--8--8---8----8---8---|--8--8--8---8----8---8----|
D|---10-10-10--10---10--10--|--10-10-10--10---10--10---|
A|--------------------------|--------------------------|
E|--------------------------|--------------------------|

OR GEbC, GEbC, AbEbC, BbEbC, AbEbC, GEbC repeated 2x

Left Hand:

E|--------------------------|--------------------------| 
B|-------------4------------|------------5-------------|
G|-------------5------------|------------5-------------|
D|-1-----------5------------|1-----------5-------------|
A|--------------------------|--------------------------|
E|-(-1)---------------------|(-1)----------------------|

OR EbEb, GCEb repeated 2x

Right Hand:

E|--------------------------|--------------------------| 
B|----8--8--8----9---8------|---8--8--8----9---8-------|
G|----9--9--9----9---9------|---9--9--9----9---9-------|
D|----10-10-10---10--10-----|---10-10-10---10--10------|
A|--------------------------|--------------------------|
E|--------------------------|--------------------------|

OR GEC, GEC, GEC, AbEC, GEC repeated 2x

Left Hand:

E|----------0---------------|---------0----------------| 
B|----------1---------------|---------1----------------|
G|----------0---------------|---------0----------------|
D|--------------------------|--------------------------|
A|-3------------------------|3-------------------------|
E|-(-4)---------------------|(-4)----------------------|

OR CC, GCE repeated 2x

(REPEAT)
(Go back to chorus, play to *, and then go to *)

Right Hand:

*E|-16----------16-----------|-15----------15--------15-| 
*B|---16------16--16------16-|---16------16-16-----16---|    
*G|-----17--17------17--17---|-----17--17-----17--17----|
*D|-------18----------18-----|-------18---------18------|
*A|--------------------------|--------------------------|
*E|--------------------------|--------------------------|

OR Ab, Eb, C, Ab, C, Eb repeated 2x
   G, Eb, C, Ab, C, Eb repeated 2x

Left Hand:

E|--------------------------|--------------------------| 
B|--------------------------|--------------------------|
G|--------------------------|--------------------------|
D|-3------------------------|3-------------------------|
A|--------------------------|--------------------------|
E|-1------------------------|1-------------------------|

OR FF repeated 2x

Right Hand:

E|-14----------14---------14|14----------14----------14| 
B|---15------15--15------15-|--15------15--15------15--|
G|-----17--17------17--17---|----17--17------17--17----|
D|-------19----------19-----|------19----------19------|
A|--------------------------|--------------------------|
E|--------------------------|--------------------------|

OR F#, D, C, A, C, D repeated 4x

Left Hand:

E|--------------------------|--------------------------| 
B|-3------------------------|3-------------------------|
G|--------------------------|--------------------------|
D|-0------------------------|0-------------------------|
A|--------------------------|--------------------------|
E|--------------------------|--------------------------|

OR DD repeated 2x

Right Hand:

E|-8------------8-----------|8-----------8-------------| 
B|---9---------9--9--------9|--9--------9--9---------9-|    
G|-----12----12----12----12-|---12----12-----12----12--|
D|--------15----------15----|------14-----------14-----|
A|--------------------------|--------------------------|
E|--------------------------|--------------------------|

OR C, Ab, G, F, G, Ab repeated 2x
   C, Ab, G, E, G, Ab repeated 2x

Left Hand:

E|--------------------------|--------------------------| 
B|-------1-----------1------|-----1------------1-------|
G|-----1---1-------1---1----|---1---1-------1-----1----|
D|---3-------3---3-------3--|-3-------3---3---------3--|
A|-3-----------3------------|3----------3--------------|
E|--------------------------|--------------------------|

OR C, F, Ab, C, Ab, F repeated 4x

Right Hand:

E|-8------------8-----------|8------------8------------| 
B|---9--------9---9-------9-|--9--------9---9--------9-|    
G|-----12---12-----12---12--|----12---12------12---12--|
D|--------13----------13----|-------12-----------12----|
A|--------------------------|--------------------------|
E|--------------------------|--------------------------|

OR C, Ab, G, Eb, G, Ab repeated 2x
   C, Ab, G, D, G, Ab repeated 2x

Left Hand:

E|--------------------------|--------------------------| 
B|-------1-----------1------|-----1------------1-------|
G|-----1---1-------1---1----|---1---1-------1-----1----|
D|---3-------3---3-------3--|-3-------3---3---------3--|
A|-3-----------3------------|3----------3--------------|
E|--------------------------|--------------------------|

OR C, F, Ab, C, Ab, F repeated 4x

Right Hand:

E|-8------------8-----------|8------------8------------| 
B|---9--------9---9-------9-|--9--------9---9--------9-|    
G|-----12---12-----12---12--|----12---12------12---12--|
D|--------15----------15----|-------14-----------14----|
A|--------------------------|--------------------------|
E|--------------------------|--------------------------|

OR C, Ab, G, F, G, Ab repeated 2x
   C, Ab, G, Eb, G, Ab repeated 2x

Left Hand:

E|--------------------------|--------------------------| 
B|-------1-----------1------|-----1------------1-------|
G|-----1---1-------1---1----|---1---1-------1-----1----|
D|---3-------3---3-------3--|-3-------3---3---------3--|
A|-3-----------3------------|3----------3--------------|
E|--------------------------|--------------------------|

OR C, F, Ab, C, Ab, F repeated 4x

Right Hand:

E|-8------------8-----------|8------------8------------| 
B|---9--------9---9-------9-|--9--------9---9--------9-|    
G|-----12---12-----12---12--|----12---12------12---12--|
D|--------13----------13----|-------12-----------12----|
A|--------------------------|--------------------------|
E|--------------------------|--------------------------|

OR C, Ab, G, Eb, G, Ab repeated 2x
   C, Ab, G, D, G, Ab repeated 2x

Left Hand:

E|--------------------------|--------------------------| 
B|-------1-----------1------|-----1------------1-------|
G|-----1---1-------1---1----|---1---1-------1-----1----|
D|---3-------3---3-------3--|-3-------3---3---------3--|
A|-3-----------3------------|3----------3--------------|
E|--------------------------|--------------------------|

OR C, F, Ab, C, Ab, F repeated 4x

Right Hand:

E|-8------------8-----------|8------------8------------| 
B|---9--------9---9-------9-|--9--------9---9--------9-|
G|-----12---12-----12---12--|----12---12------12---12--|
D|--------11----------11----|-------11-----------11----|
A|--------------------------|--------------------------|
E|--------------------------|--------------------------|

OR C, Ab, G, Db, G, Ab repeated 4x

Left Hand:

E|--------------------------|--------------------------| 
B|-------1-----------1------|-----1------------1-------|
G|-----1---1-------1---1----|---1---1-------1-----1----|
D|---3-------3---3-------3--|-3-------3---3---------3--|
A|-3-----------3------------|3----------3--------------|
E|--------------------------|--------------------------|

OR C, F, Ab, C, Ab, F repeated 4x

Right Hand:

E|-8------------------------|| 
B|---9--------9-------------||
G|-----12---12--------------||
D|--------11----11----------||
A|--------------------------||
E|--------------------------||

OR C, Ab, G, Db, G, Ab repeated 2x

Left Hand:

E|--------------------------|| 
B|--------------------------||
G|--------------------------||
D|--------------------------||
A|--------------------------||
E|-1------------------------||

OR F
Suggest correction new What's this?
You can suggest a correction to this tab. Community and Mods will review your correction and vote to approve or reject it.
comments
We did not receive enough feedback on this tab! Please rate:
print report bad tab
1 2 3 4 5
2 comments total.
+1 reply
Darclaus11 144 wrote on June 18 2011, 01:04 pm

Great tab. Now all I need are the worlds longest fingers!

0 reply
art-divin 23 wrote on March 19 2013, 08:41 am

how would it be to pick 8-9-12-15 with left hand? :)

guest
You may want to rate the tab now too:
select rating
Please do not post tabs as comments. Select "correction" instead!