Oops, an error
Loading. Please wait.

Save Me Bass Tab

version 1
version 1

Whole song

Interactive

by Muse
4,519 views 3 this week
no commentswrite comment
1 2 3 4 5
excellent!
x 6
add to favorites
launch autoscroll
font size
0
reset
guitar tuner
Tab Pro tools
  • play this tab
  • loop segment
  • change instrument
  • show fretboard
  • metronome
×
Best way to learn
"Save Me"
Autoscroll
slow
fast
+/-
esc
set tempo
stop
Contributor
Difficulty
novice
Band: Muse
Song: Save Me
Album: The 2nd Law (2012)
Bassist: Chris Wolstenholme
Tuning: Standard


Verse: [0:39]

G|------------------------------------------------------------------------|
D|------------------------------------------------------------------------|
A|5~-----0~-----5~-----0~-----3~--2~--5~-----3~--2~--1~----/5~-----5~-----|
E|------------------------------------------------------------------------|

Chorus:

G|--------------------------------|
D|--------------------------------|
A|3(x12)----------3(x12)----------|
E|--------5(x12)----------5(x12)--| x2

Verse:

G|----------7-----------------4--5----4--------------|
D|-------------------------7---------------7----5----|
A|5--5-5--5------5--5-5--5---------------------------|
E|---------------------------------------------------| x2

G|5----7----4----7--------------7----9-----11----\---|
D|---------------------------------------------------|
A|--------------------5--5-5--5----------------------|
E|---------------------------------------------------|

G|5----7----4----7---\3----5----7----9----|   |----------7----|
D|----------------------------------------|   |---------------|
A|----------------------------------------|   |5--5-5--5------|
E|----------------------------------------| + |---------------| x4

Chorus:

G|----------5--------------5----------------------------------|           |
D|----------------------------------------7--------------7\---|           |
A|3--3-3--3------3--3-3--3------------------------------------|           |
E|------------------------------5--5-5--5------5--5-5--5------|           |
                                                                          |x2
G|----------5---5---7---9--11------------------4-5-4-4----7-9-7-7-------| |
D|----------------------------------------7------------7----------10\---| |
A|3--3-3--3-------------------------------------------------------------| |
E|------------------------------5--5-5--5-------------------------------| |
 
Play this part very quiet:

G|------------------------------------------------------------|
D|5~----------------------------5(x24)------------------------|
A|------------------------------------------------------------|
E|------------------------------------------------------------|

Guitar solo:

G|----------5--------------5----------------------------------|           
D|----------------------------------------7--------------7\---|           
A|3--3-3--3------3--3-3--3------------------------------------|           
E|------------------------------5--5-5--5------5--5-5--5------| x2 

Chorus:

G|--------------------------------|
D|--------------------------------|
A|3(x12)----------3(x12)----------|
E|--------5(x12)----------5(x12)--| x2

Last note - 5th fret on D string.

/  slide up
\  slide down
h  hammer-on
p  pull-off
~  let ring
comments
print report bad tab
I want to post or [tab]
guest
You may want to rate the tab now too:
select rating
Please do not post tabs as comments. Select "correction" instead!