Oops, an error
Loading. Please wait.

Screenager Bass Tab

version 2
version 2

Whole song

Interactive

by Muse
1,070 views 1 this week
no commentswrite comment
1 2 3 4 5
please rate
add to favorites
launch autoscroll
font size
0
reset
guitar tuner
Autoscroll
slow
fast
+/-
esc
set tempo
stop
Help us to improve Ultimate-Guitar.com Take our survey!
×
Author
Difficulty
Tuning
novice
D A D G B E
Band: Screenager
Album: Origin of Simmetry (2001)
Bassist: Chris Wolstenholme
Tuning: Dropped D

No bass 0:00 - 0:29

Verse:

G|---------|   |---------|     |------------------|---------|
D|---------|   |---------|     |------------------|---------|
A|---------|   |---------|     |------------------|---------|
D|----5~---|   |-7-8-5~--| x12 |-7-8-7~--7-0-0/5~-|-7-8-5~--| 

Pre-chorus:

G|------------|------------|------------|------------|
D|------------|------------|------------|------------|
A|-----6~-----|-----6~-----|5-5~--3-3~--|2-2~--0-0~--|
D|-7-8--------|------------|------------|------------|

Chorus:

G|--------|--------|--------|--------|
D|--------|--------|--------|--------|
A|--------|66666666|77777777|77777777|
D|55555555|--------|--------|--------|

G|--------|--------|--------|--------|
D|--------|--------|--------|--------|
A|55555555|66666666|77777777|77777777|
D|--------|--------|--------|--------| x2

G|--------|--------|--------|---------|
D|--------|--------|--------|---------|
A|55555555|66666666|77777777|77775-5\8|
D|--------|--------|--------|---------|

Verse:

G|---------|   |---------|    |------------------|---------|
D|---------|   |---------|    |------------------|---------|
A|---------|   |---------|    |------------------|---------|
D|----5~---|   |-7-8-5~--| x8 |-7-8-7~--7-0-0/5~-|-7-8-5~--| 

Pre-chorus:

G|------------|------------|------------|------------|
D|------------|------------|------------|------------|
A|-----6~-----|-----6~-----|5-5~--3-3~--|2-2~--0-0~--|
D|-7-8--------|------------|------------|------------|

Chorus:

G|--------|--------|--------|--------|
D|--------|--------|--------|--------|
A|--------|66666666|77777777|77777777|
D|55555555|--------|--------|--------|

G|--------|--------|--------|--------|
D|--------|--------|--------|--------|
A|55555555|66666666|77777777|77777777|
D|--------|--------|--------|--------| x2

G|--------|--------|--------|---------|
D|--------|--------|--------|---------|
A|55555555|66666666|77777777|77775-5\8|
D|--------|--------|--------|---------|

Ending:

G|---------|   |---------|    |------------------| Last note play 
D|---------|   |---------|    |------------------|  very softly
A|---------|   |---------|    |------------------| including slide
D|----5~---|   |-7-8-5~--| x2 |-7-8-7~--7-0-0/5~-| 

/  slide up
\  slide down
h  hammer-on
p  pull-off
~  let ring
Suggest correction
Give kudos to tab author, rate the tab!
1 2 3 4 5
comments
print report bad tab
guest
You may want to rate the tab now too:
select rating
Please do not post tabs as comments. Select "correction" instead!