Oops, an error
Loading. Please wait.

Shine Bass Tab

version 1
version 1

Acoustic

Whole song

Interactive

by Muse
1,437 views 3 this week
1 commentread comment
1 2 3 4 5
1 last vote to show rating
add to favorites
launch autoscroll
font size
0
reset
guitar tuner
Autoscroll
slow
fast
+/-
esc
set tempo
stop
Help us to improve Ultimate-Guitar.com Take our survey!
×
Author
Band: Muse
Song: Shine Acoustic
Album: Hullabaloo (CD1)
Bassist: Chris Wolstenholme
Tuning: Standard

G|-----------------------------|
D|-----------------------------|
A|-3~3~----3~3~----5~5~--------|
E|------------------------3~3~-| x4

G|---------------------------------------------------|
D|---------------------------------------------------|
A|-------------3~3~-2~2~-0~0~---------------------3~-|
E|-5~-3~-1~-3~----------------3~3~--1~-2~-3~-3~3~----|

1:47 - 2:00 no bass except dead note (1:59)

G|-----------------------------|
D|-----------------------------|
A|-3~3~----3~3~----5~5~--------|
E|------------------------3~3~-| x2

G|---------------------------------------------------|
D|---------------------------------------------------|
A|-------------3~3~-2~2~-0~0~---------------------3~-|
E|-5~-3~-1~-3~----------------3~3~--1~-2~-3~-3~3~----|

G|--------|--------|--------|--------|
D|--------|--------|--------|--------|
A|33333333|33333333|55555555|--------|
E|--------|--------|--------|33333333| x2

G|---------------------------------------------------|
D|---------------------------------------------------|
A|-------------3~3~-2~2~-0~0~------------------------|
E|-5~-3~-1~-3~----------------3~3~--1~-2~-3~-3~3~----|

G|-----5-------1-------5-------5-----------------------------------|
D|---5---5---2---2---2---2---2---2-----3---------------5-------5---|
A|-3-------2-------0-----------------3---3---3-5-3---5---5---5---5-|
E|-------------------------3-------1-------2-------3-------3-------|

G|-----5-------1-------5-------5---------------------------------------|
D|---5---5---2---2---2---2---2---2-----3-------------------------------|
A|-3-------2-------0-----------------3---3---3-5-3------------------3~-|
E|-------------------------3-------1-------2-------3~------3~----------|

/  slide up
\  slide down
h  hammer-on
p  pull-off
~  let ring

Suggest correction
Give kudos to tab author, rate the tab!
1 2 3 4 5
comments
print report bad tab
1 comment total.
0 reply
QueenFan93 35 Mar 31, 2010 08:15 PM

great tab!

guest
You may want to rate the tab now too:
select rating
Wanna post a correction for this tab? Suggest correction