Oops, an error
Loading. Please wait.

Shine Tab

version 1
version 1

Acoustic

Interactive

by Muse
8,735 views 12 this week
no commentswrite comment
1 2 3 4 5
excellent!
x 7
add to favorites
launch autoscroll
font size
0
reset
how to read this tab
guitar tuner
Autoscroll
slow
fast
+/-
esc
set tempo
stop
Help us to improve Ultimate-Guitar.com Take our survey!
×
Contributor
Capo
3rd fret
-------------------------------------------------------------------------------
                             Shine Acoustic - Muse
-------------------------------------------------------------------------------

Artist: Muse
Song: Shine Acoustic
Album: Hullabaloo Soundtrack
Tabbed by: the ninja god
Email: the_ninja_god@live.co.uk

Tuning: Standard
Capo: 3rd fret if desired

Please listen to the song for rhythm, as it’s a very slow melodic song.

e|---------------------------------------------------------------------------|
B|---2--2-----------2--2-----------3--3-------------3----------3-------------|
G|---2----2---2-----2----2---2-----4----4---4-----1---1---1------------------|
D|---2------2-------2------2-------4------4-------2-----2--------------------|
A|---0--------------0--------------2--------------2----------2---------------|
E|------------------------------------------------0--------------------------|

e|---------------------------------------------------------------------------|
B|------2-----------2-----------2------------2-------------------------------|
G|---2----2-------2----2------2----2-------2-----2---------------------------|
D|---2-------2--3--------3--4--------4--3----------3-------------------------|
A|---0-----------------------------------------------------------------------|
E|---------------------------------------------------------------------------|

e|---------------------------------------------------------------------------|
B|---3--3-------3---3------3----------3--3-----3-----------------------------|
G|---4----4---4---3---3--2---2---1----1----1---------------------------------|
D|---4------4------------------2------2------2---0--0------------------------|
A|---2-----------------------------------------------------------------------|
E|---------------------------------------------------------------------------|

e|---------------------------------------------------------------------------|
B|---2---------2--------------2----------2--------0-----3--0-------3---------|
G|---2--2----------2----------2--2----------2------------------------1--1----|
D|---2----2--2-------2--------2-----2--2-------2-----4-------4--2----------2-|
A|---0------------------0--0--0----------------------------------------------|
E|---------------------------------------------------------------------------|

e|---------------------------------------------------------------------------|
B|------2----------2----------2----------2-----------------------------------|
G|---2----2------2---2------2---2------2----2--------------------------------|
D|---2------2--3-------3--4-------4--3--------3------------------------------|
A|---0-----------------------------------------------------------------------|
E|---------------------------------------------------------------------------|

e|---------------------------------------------------------------------------|
B|---3--3-------3---3------3-------------------------------------------------|
G|---4----4---4---3---3--2---2----1------------------------------------------|
D|---4------4-------------------2--------------------------------------------|
A|---2-----------------------------------------------------------------------|
E|---------------------------------------------------------------------------|

e|---------------------------------------------------------------------------|
B|---3--3-----3-----2-------2-------3-------3-----------2--------------------|
G|---1----1-------2---2---2---2---2---2---4---4-----2-----2---2--------------|
D|---2------2---4-------2-------0-------2---------2---2-----2----------------|
A|----------------------------------------------0----------------------------|
E|---------------------------------------------------------------------------|

e|---------------------------------------------------------------------------|
B|------------2------------------2-------------------------------------------|
G|--------4-----4---4-------2------2---2-------------------------------------|
D|------3---3-----3-------4---4------4---------------------------------------|
A|---------------------------------------------------------------------------|
E|---4------------------2----------------------------------------------------|

e|-------------------------2---------------2---------------0-----------------|
B|-----------2-----------3---3---3-----0-----0---0-----0-----0---0-----0-----|
G|-------2-----2---2---2-------2-----2---2-----2-----2---2-----2-----1---1---|
D|-----2---2-----2---0-------------1---------------2---------------2---------|
A|---------------------------------------------------------------------------|
E|---0-----------------------------------------------------------------------|

e|---0-----------------------------------------------------------------------|
B|-----0---------2---------2----------2-------------2-----------2------------|
G|-------1---2-----2---2-----2----2-----2---2---2-----2----2------2----2-----|
D|---------2---2-----3---3-----4----4-----3---3---3-----4-----4------3---3---|
A|---------------------------------------------------------------------------|
E|---------------------------------------------------------------------------|

e|---------------------------------------------------------------------------|
B|---2----------2---------2--------------------------------------------------|
G|-----2---2------2---2------3-----------------------------------------------|
D|-------4---4------3---3----------------------------------------------------|
A|---------------------------------------------------------------------------|
E|---------------------------------------------------------------------------|

e|---0--0--0--0--0--0--0-----0-----0-----0-----0-----0-----0-----------------|
B|---2--2--2--2--2--2--2-----2-----2-----2-----2-----2-----2-----------------|
G|---2--2--2--2--2--2--2-----2-----2-----2-----2-----2-----2-----------------|
D|---2--2--2--2--2--2--2-----2-----2-----2-----2-----2-----2-----------------|
A|---0--0--0--0--0--0--0-----0-----0-----0-----0-----0-----0-----------------|
E|---------------------------------------------------------------------------|

e|---0----0----0-----0-------0----0----0----0--------------------------------|
B|---0----0----0-----0-------3----3----3----3-------2----2----2----2---------|
G|---2----2----2-----2-------1----1----1----1-------2----2----2----2---------|
D|---0----0----0-----0-------2----2----2----2-------2----2----3----3---------|
A|---2----2----2-----2-------2----2----2----2-------0----0----0----0---------|
E|---------------------------0----0----0----0--------------------------------|

e|---------------------------0----0----0----0-------0----0----0----0---------|
B|---2----2----2-----2-------0----0----0----0-------3----3----3----3---------|
G|---2----2----2-----2-------2----2----2----2-------1----1----1----1---------|
D|---4----4----3-----3-------0----0----0----0-------2----2----2----2---------|
A|---0----0----0-----0-------2----2----2----2-------2----2----2----2---------|
E|--------------------------------------------------0----0----0----0---------|

e|---2------2------0------0------2------2------0---------0-------------------|
B|---2------2------2------2------3------3------3---------3-------------------|
G|---2------2------2------2------2------2------1---------1-------------------|
D|---4------4------2------2------0------0------2---------2-------------------|
A|---------------------------------------------------------------------------|
E|---------------------------------------------------------------------------|

e|-------------------------2----2----0----0------2----2----2----2------------|
B|---2-----2----2----2-----2----2----2----2------3----3----0----0------------|
G|---2-----2----4----4-----2----2----2----2------2----2----2----2------------|
D|---2-----2----3----3-----4----4----2----2------0----0----1----1------------|
A|---0-----0----x----x-------------------------------------------------------|
E|--------------4----4-------------------------------------------------------|

e|---0----0----0-----0---------------------------2----2----0----0------------|
B|---0----0----0-----0------2----2----2----2-----2----2----2----2------------|
G|---2----2----1-----1------2----2----4----4-----2----2----2----2------------|
D|---2----2----2-----2------2----2----3----3-----4----4----2----2------------|
A|--------------------------0----0----x----x---------------------------------|
E|------------------------------------4----4---------------------------------|

e|---2----2----2----2----0------0----0------0--------------------------------|
B|---3----3----0----0----0------0----0------0-----0----2----2----2-----------|
G|---2----2----2----2----2------2----1------1-----2----2----4----4-----------|
D|---0----0----1----1----2------2----2------2-----2----2----3----3-----------|
A|------------------------------------------------0----0----x----x-----------|
E|----------------------------------------------------------4----4-----------|

e|---2------2----0------0------2----2-----2-----2-------0----0---------------|
B|---2------2----2------2------3----3-----0-----0-------0----0---------------|
G|---2------2----2------2------2----2-----2-----2-------2----1---------------|
D|---4------4----2------2------0----0-----1-----1-------2----2---------------|
A|---------------------------------------------------------------------------|
E|---------------------------------------------------------------------------|


e|---------------------------------------------------------------------------|
B|------------2-----------------2-----------------2--------------------------|
G|------2--------2--------2--------2--------2--------2--------2-----2--------|
D|---2-----2--------2--3-----3--------3--4-----4--------4--3-----3-----3-----|
A|---------------------------------------------------------------------------| 
E|---------------------------------------------------------------------------|

e|---------------------------------------------------------------------------|
B|---2-----------------2-----------------2--------------------------2--------|
G|------2--------2--------2--------2--------2--------3--------2--------2-----|
D|---------3--2-----2--------2--3-----3--------3--4-----4--3-----3--------3--|
A|---------------------------------------------------------------------------|
E|---------------------------------------------------------------------------|

Repeat to fade


Lyrics

Who cares for the life we've earned? 
Someone's sold all the truth you've earned. 
Remember when we used to shine 
And had no fear or sense of time 
When it creeps up on you 

You can't cry now there's nothing to feel. 
No one's noticed our loneliness. 
Remember when you used to tease 
And made us scream eternal joy. 

I believed that you'd always be here 
'Cause once you promised a life with no fear. 
Please don't break my ideals 
And say what's fake was always real. 
Hope was the one, now I know. 
Take me back again.


| /  slide up
| \  slide down
| h  hammer-on
| p  pull-off
| ~  vibrato
| +  harmonic
| x  Mute note
comments
print report bad tab
I want to post or [tab]
guest
You may want to rate the tab now too:
select rating
Please do not post tabs as comments. Select "correction" instead!