Oops, an error
Loading. Please wait.

Shine Bass Tab

version 1
version 1

Whole song

Interactive

by Muse
1,335 views 3 this week
no commentswrite comment
1 2 3 4 5
please rate
add to favorites
launch autoscroll
font size
0
reset
guitar tuner
Autoscroll
slow
fast
+/-
esc
set tempo
stop
Help us to improve Ultimate-Guitar.com Take our survey!
×
Author
Difficulty
Artist: Muse

Album: B-sides ( Hypermusic single CD1 )

Song: Shine


Guitar Intro  (wait)

and then.....

G||-----------------------------------------------|
D||-----------------------------------------------|
A||--12--10--8--10/--3--2--0------------------15--|
E||---------------------------3--1--2--3--3\------|

G||--------------------------------------------------|
D||--------------------------------------------------|
A||--15-15-15-15-15-15-15-15-15-15-15-15-15-15-------|
E||---------------------------------------------15/--|

Verse

G||--------------------------------------------------------------------------|
D||--------------------------------------------------------------------------|
A||--3-3-3-3--3-3-3-3--3-3-3-3--3-3-3-3--5-5-5-5--5-5-5-5--------------------|
E||--------------------------------------------------------3-3-3-3--3-3-3-3--|

G||--------------------------------------------------------------------------|
D||--------------------------------------------------------------------------|
A||--3-3-3-3--3-3-3-3--3-3-3-3--3-3-3-3--5-5-5-5--5-5-5-5--------------------|
E||--------------------------------------------------------3-3-3-3--3-3-3-3--|

Chorus

G||-----------------------------------------------------------------|
D||-----------------------------------------------------------------|
A||--------------------------------------3-3-3-3--2-2-2-2--0-0-0-0--|
E||--5-5-5-5--3-3-3-3--1-1-1-1--3-3-3-3-----------------------------|

G||---------------------------------------------------|
D||---------------------------------------------------|
A||---------------------------------------------------|
E||--3-3-3-3--1-1-1-1--2-2-2-2--3-3-3-3--3-3-3-3/--8--|

Verse 2

G||--------------------------------------------------------------------------|
D||--------------------------------------------------------------------------|
A||--3-3-3-3--3-3-3-3--3-3-3-3--3-3-3-3--5-5-5-5--5-5-5-5--------------------|
E||--------------------------------------------------------3-3-3-3--3-3-3-3--|

G||--------------------------------------------------------------------------|
D||--------------------------------------------------------------------------|
A||--3-3-3-3--3-3-3-3--3-3-3-3--3-3-3-3--5-5-5-5--5-5-5-5--------------------|
E||--------------------------------------------------------3-3-3-3--3-3-3-3--|

Chorus 2

G||-----------------------------------------------------------------|
D||-----------------------------------------------------------------|
A||--------------------------------------3-3-3-3--2-2-2-2--0-0-0-0--|
E||--5-5-5-5--3-3-3-3--1-1-1-1--3-3-3-3-----------------------------|

G||-----------------------------------------------|
D||-----------------------------------------------|
A||-----------------------------------------------|
E||--3-3-3-3--1-1-1-1--2-2-2-2--3-3-3-3--3-3-3-3--|

G||------5--------1--------5--------5----------------------------------------|
D||----5---5----2---2----2---2----2---2------3-----------------5--------5----|
A||--3--------2--------0-------------------3---3----3-5-3----5---5----5---5--|
E||----------------------------3---------1--------2--------3--------3--------|

G||------5--------1--------5--------5---------------------------------|
D||----5---5----2---2----2---2----2---2------3------------------------|
A||--3--------2--------0-------------------3---3----3-5-3----------3--|
E||----------------------------3---------1--------2--------3---3------|

End...

Tab by: Pedro Zappa
Suggest correction
Give kudos to tab author, rate the tab!
1 2 3 4 5
comments
print report bad tab
guest
You may want to rate the tab now too:
select rating
Wanna post a correction for this tab? Suggest correction