Oops, an error
Loading. Please wait.

Showbiz Tab

version 1
version 1

Whole song

by Muse
21,087 views 30 this week
no commentswrite comment
1 2 3 4 5
worth learning
x 8
add to favorites
launch autoscroll
font size
0
reset
how to read this tab
guitar tuner
Tab Pro tools
  • play this tab
  • loop segment
  • change instrument
  • show fretboard
  • metronome
Autoscroll
slow
fast
+/-
esc
set tempo
stop
E---------------------------------------------------
B---------------------------------------------------
G---------------------------------------------------
D--4-4-4-4-4-4-4-4-4-4-4-4-4-4-4-4-4-4--------------
A---------------------------------------------------
E---------------------------------------------------
    controlling my feelings for too long  
(under this you will hear the bass playing 2nd fret low E)
E---------------------------------------------------
B---------------------------------------------------
G---------------------------------------------------
D--4-4-4-4-4-4-4-4-4-4-4-4-4-4-4-4-4-4--------------
A---------------------------------------------------
E---------------------------------------------------
    controlling my feelings for too long   

E---------------------------------------------------
B---------------------------------------------------
G---------------------------------------------------
D--4-4-4-4-4-4-4-4-4-4-4-4-4-4-4-4-4-4--------------
A--5-5-5-5-5-5-5-5-5-5-5-5-5-5-5-5-5-5--------------
E---------------------------------------------------
   forcing our darkest souls to unfold

E---------------------------------------------------
B---------------------------------------------------
G---------------------------------------------------
D--4-4-4-4-4-4-4-4-4-4-4-4-4-4-4-4-4-4--------------
A--5-5-5-5-5-5-5-5-5-5-5-5-5-5-5-5-5-5--------------
E--7-7-7-7-7-7-7-7-7-7-7-7-7-7-7-7-7-7--------------
   forcing our darkest souls to unfold 

E---------------------------------------------------
B---------------------------------------------------
G---------------------------------------------------
D--4-4-4-4-4-4-4-4-4-4-4-4-4-4-4-4-4-4--------------
A--5-5-5-5-5-5-5-5-5-5-5-5-5-5-5-5-5-5--------------
E--5-5-5-5-5-5-5-5-5-5-5-5-5-5-5-5-5-5--------------
     pushing us into self destruction

E---------------------------------------------------
B---------------------------------------------------
G---------------------------------------------------
D--4-4-4-4-4-4-4-4-4-4-4-4-4-4-4-4-4-4--------------
A--5-5-5-5-5-5-5-5-5-5-5-5-5-5-5-5-5-5--------------
E--7-7-7-7-7-7-7-7-7-7-7-7-7-7-7-7-7-7--------------
    pushing us into self destruction
CHORUS 1
E--------------2----------------------4------------4------------------4-------------
B----------------2----2-----------------3----3-------3----2---------2-----2----2----
G---------2--------2------------2---------2------------2----------2----------2------
D------------------------------0-------------------------------4--------------------
A------4----------------------------------------------------------------------------
E--2--------------------------------------------------------------------------------
                    they make me                                          make
                    they make me                                          make
                      
E--4----------
B----2---2----
G------2------
D-------------
A-------------
E-------------
  me scream
  me dream

E--------------------------------
B-----------3-----------3--------
G--------4----4----4------4------
D-----4----------4------------4--
A--2-----------------------------
E--------------------------------
    your         scream
    your         dream

VERSE 2
A--9-11-12-12b-12-11-9--11-11b+r-9-          b+r =bend and return
 
CHORUS   
E--2---------------4------------4--------2---------------------------
B--2---------------3------------2--------3---------------------------
G--2---------------2------------2--------4---------------------------
D--4---------------0------------4--------4---------------------------
A--4-------------------------------------2---------------------------
E--2-----------------------------------------------------------------
     they make meeeeeeeeeee scream your scream
     they make meeeeeeeeeee dream   your dream

VERSE 3
B--7-9-10-10b-10-9-7-9-9b+r-7-

SOLO

B--7----9--10--12----14--15--17--18----19-19-19-21-19-21-19-21--
G---------------------------------------------------------------
D--4----6--7----9----11--12--14--15-----------------------------

B--19-21-22-22b-22-21-19-21-21b+r-19

Structure

VERSE  1
CHORUS 1
VERSE  2
CHORUS 2
VERSE  3
CHORUS 2
SOLO
CHORUS 2
comments
print report bad tab
I want to post or [tab]
guest
You may want to rate the tab now too:
select rating
Please do not post tabs as comments. Select "correction" instead!