Oops, an error
Loading. Please wait.

Showbiz Bass Tab

version 2
version 2

Whole song

by Muse
6,484 views 15 this week
1 commentread comment
1 2 3 4 5
x 11
add to favorites
launch autoscroll
font size
0
reset
guitar tuner
Autoscroll
slow
fast
+/-
esc
set tempo
stop
Help us to improve Ultimate-Guitar.com Take our survey!
×
Author
Difficulty
novice
Band: Muse
Song: Showbiz
Album: Showbiz (1999)
Bassist: Chris Wolstenholme
Tuning: Standard

Intro:

G|--------------------------------|    |--------------------------------|
D|4-----4-----4-----4-----4---4---|    |------4-----------4-------------|
A|--------------------------------|    |----------------------------3-4-|
E|--2-2---2-2---2-2---2-2---2---2-| x5 |5-2-2---2-2-5-2-2---2-2-5-2-----|

G|--------------------------------|--------------------------------|----|
D|4-----4-----4-----4-----4---4---|------4-----------4-------------|4~--|
A|--------------------------------|----------------------------3-4-|----|
E|--2-2---2-2---2-2---2-2---2---2-|5-2-2---2-2-5-2-2---2-2-5-2-----|----|

0:46 - 1:02 no bass.

G|--------------------------------|--------------------------------|
D|--------------------------------|--------------------------------|
A|5-5-5-5-5-5-5-5-5-5-5-5-5-5-5-5-|2-2-2-2-2-2-2-2-2-2-2-2-2-2-2-0-|
E|--------------------------------|--------------------------------|

G|--------------------------------|--------------------------------|
D|--------------------------------|--------------------------------|
A|--------------------------------|5-5-5-5-5-5-5-5-5-5-5-5-5-5-5-5-|
E|2-2-2-2-2-2-2-2-2-2-2-2-2-2-2-2-|--------------------------------|

G|--------------------------------|--------------------------------|
D|--------------------------------|--------------------------------|
A|4-4-4-4-4-4-4-4-4-4-4-4-4-4-4-4-|2-2-2-2-2-2-2-2-2-2-2-2-2-2-2-0-|
E|--------------------------------|--------------------------------|

Play previous 4 bars again but second time don't play 0 in last bar but 2.

G|--------------------------------|
D|--------------------------------|
A|--------------------------------|
E|2-2-2-2-2-2-2-2-2-2-2-2-2-2-2-2-| x2

G|--------------------------------|
D|4-----4-----4-----4-----4---4---|
A|--------------------------------|
E|--2-2---2-2---2-2---2-2---2---2-| x2

G|--------------------------------|--------------------------------|
D|--------------------------------|--------------------------------|
A|5-5-5-5-5-5-5-5-5-5-5-5-5-5-5-5-|2-2-2-2-2-2-2-2-2-2-2-2-2-2-4-4-|
E|--------------------------------|--------------------------------|

G|--------------------------------|--------------------------------|
D|--------------------------------|------------------999-9-7/99----|
A|5-5-5-5-5-5-5-5-5-5-5-5-5-5-5-5-|2-2-2-2-2-2-2-2-2/-----------9\-|
E|--------------------------------|--------------------------------|


G|--------------------------------|--------------------------------|
D|--------------------------------|--------------------------------|
A|--------------------------------|5-5-5-5-5-5-5-5-5-5-5-5-5-5-5-5-|
E|2-2-2-2-2-2-2-2-2-2-2-2-2-2-2-2-|--------------------------------|

G|--------------------------------|--------------------------------|
D|--------------------------------|--------------------------------|
A|4-4-4-4-4-4-4-4-4-4-4-4-4-4-4-4-|2-2-2-2-2-2-2-2-2-2-2-2-2-2-2-0-|
E|--------------------------------|--------------------------------|

Play previous 4 bars again but second time don't play 0 in last bar but 2
and slide up for:

G|-11-11-11-11-11-11-11-11-|    |-11-11-11-11-11-11-11-11-|
D|-------------------------|    |0--0--0--0--0--0--0--0---|
A|9--9--9--9--9--9--9--9---|    |-------------------------|
E|-------------------------| x4 |-------------------------|

G|-11-11-11-11-11-11-11-11-|-11-11-11-11-11-11-11-11-|
D|9--9--9--9--9--9--9--9---|0--0--0--0--0--0--0--0---|
A|-------------------------|-------------------------|
E|-------------------------|-------------------------|

G|-11-11-11-11--------------|
D|9--9--9--9--9-999-9-9-9---|
A|------------------------9\|
E|--------------------------|

There will be different endings so be careful. It's a little bit confusing but if listen 
to the song You will hear them.

G|--------------------------------|--------------------------------|
D|--------------------------------|--------------------------------|
A|--------------------------------|5-5-5-5-5-5-5-5-5-5-5-5-5-5-5-5-|
E|2-2-2-2-2-2-2-2-2-2-2-2-2-2-2-2-|--------------------------------|

G|--------------------------------|----------------------------------|
D|--------------------------------|------------------999-9-7/99-7h9p7|
A|4-4-4-4-4-4-4-4-4-4-4-4-4-4-4-4-|2-2-2-2-2-2-2-2-2/----------------|
E|--------------------------------|----------------------------------|

G|--------------------------------|--------------------------------|
D|--------------------------------|--------------------------------|
A|--------------------------------|5-5-5-5-5-5-5-5-5-5-5-5-5-5-5-5-|
E|2-2-2-2-2-2-2-2-2-2-2-2-2-2-2-2-|--------------------------------|

G|--------------------------------|--------------------------------|
D|--------------------------------|------------------999-9-7/99----|
A|4-4-4-4-4-4-4-4-4-4-4-4-4-4-4-4-|2-2-2-2-2-2-2-2-2/-----------9\-|
E|--------------------------------|--------------------------------|

G|--------------------------------|--------------------------------|
D|--------------------------------|--------------------------------|
A|--------------------------------|5-5-5-5-5-5-5-5-5-5-5-5-5-5-5-5-|
E|2-2-2-2-2-2-2-2-2-2-2-2-2-2-2-2-|--------------------------------|

G|--------------------------------|----------------------------------|
D|--------------------------------|------------------999-9-7/99-7h9p7|
A|4-4-4-4-4-4-4-4-4-4-4-4-4-4-4-4-|2-2-2-2-2-2-2-2-2/----------------|
E|--------------------------------|----------------------------------|

G|--------------------------------|--------------------------------|
D|--------------------------------|--------------------------------|
A|--------------------------------|5-5-5-5-5-5-5-5-5-5-5-5-5-5-5-5-|
E|2-2-2-2-2-2-2-2-2-2-2-2-2-2-2-2-|--------------------------------|

G|--------------------------------|----------------------------------|
D|--------------------------------|------------------9-9-9-9-9-9-----|
A|4-4-4-4-4-4-4-4-4-4-4-4-4-4-4-4-|2-2-2-2-2-2-2-2-2/------------9\--|
E|--------------------------------|----------------------------------|

G|--------------------------------|--------------------------------|  |
D|--------------------------------|--------------------------------|  |
A|--------------------------------|5-5-5-5-5-5-5-5-5-5-5-5-5-5-5-5-|  |
E|2-2-2-2-2-2-2-2-2-2-2-2-2-2-2-2-|--------------------------------|  |
                                                                      | x2
G|--------------------------------|--------------------------------|  |
D|--------------------------------|--------------------------------|  |
A|4-4-4-4-4-4-4-4-4-4-4-4-4-4-4-4-|2-2-2-2-2-2-2-2-2-2-2-2-2-2-2-0-|  |
E|--------------------------------|--------------------------------|  |

G|--------------------------------|
D|--------------------------------|
A|--------------------------------|
E|2~------------------------------|

/  slide up
\  slide down
h  hammer-on
p  pull-off
~  let ring
Suggest correction
comments
print report bad tab
1 comment total.
+1 reply
wybor 10 Sep 16, 2015 08:40 AM

this sounds 100% to me rock on man \m/

guest
You may want to rate the tab now too:
select rating
Wanna post a correction for this tab? Suggest correction