Oops, an error
Loading. Please wait.

Showbiz Tab

version 2
version 2

Whole song

by Muse
61,741 views 12 this week
6 commentsread comments
1 2 3 4 5
x 40
add to favorites
launch autoscroll
font size
0
reset
how to read this tab
guitar tuner
Autoscroll
slow
fast
+/-
esc
set tempo
stop
Help us to improve Ultimate-Guitar.com Take our survey!
×
Half I've done the other(well the first verse)I got of the other tab on this site.

Tuning: Standard

[Verse]
e|---------------------------------------------------|
B|---------------------------------------------------|
G|---------------------------------------------------|
D|--4-4-4-4-4-4-4-4-4-4-4-4-4-4-4-4-4-4--------------|
A|---------------------------------------------------|
E|---------------------------------------------------|
    Controlling my feelings for too long

e|---------------------------------------------------|
B|---------------------------------------------------|
G|---------------------------------------------------|
D|--4-4-4-4-4-4-4-4-4-4-4-4-4-4-4-4-4-4--------------|
A|---------------------------------------------------|
E|---------------------------------------------------|
    Controlling my feelings for too long

e|---------------------------------------------------|
B|---------------------------------------------------|
G|---------------------------------------------------|
D|--4-4-4-4-4-4-4-4-4-4-4-4-4-4-4-4-4-4--------------|
A|--5-5-5-5-5-5-5-5-5-5-5-5-5-5-5-5-5-5--------------|
E|---------------------------------------------------|
   Forcing our darkest souls to unfold

e|---------------------------------------------------|
B|---------------------------------------------------|
G|---------------------------------------------------|
D|--4-4-4-4-4-4-4-4-4-4-4-4-4-4-4-4-4-4--------------|
A|--5-5-5-5-5-5-5-5-5-5-5-5-5-5-5-5-5-5--------------|
E|--7-7-7-7-7-7-7-7-7-7-7-7-7-7-7-7-7-7--------------|
   Forcing our darkest souls to unfold

e|-------------------------------------------------|
B|-------------------------------------------------|
G|-------------------------------------------------|
D|-------------------------------------------------|
A|-9--9--9--9--9--9--9--9--9--9--9--9--9--9--9--9--|
E|10-10-10-10-10-10-10-10-10-10-10-10-10-10-10-10--|
  Forcing our darkest souls to unfold

e|---------------------------------|
B|---------------------------------|
G|---------------------------------|
D|---------------------------------|
A|-9-9-9-9-9-9-9-9-9-9-9-9-9-9-9-9-|
E|-7-7-7-7-7-7-7-7-7-7-7-7-7-7-7-7-|
  Forcing out darkest souls to unfold

e|---------------------------------------------------|
B|---------------------------------------------------|
G|---------------------------------------------------|
D|--4-4-4-4-4-4-4-4-4-4-4-4-4-4-4-4-4-4--------------|
A|--5-5-5-5-5-5-5-5-5-5-5-5-5-5-5-5-5-5--------------|
E|--5-5-5-5-5-5-5-5-5-5-5-5-5-5-5-5-5-5--------------|
     Pushing us into self destruction

e|---------------------------------------------------|
B|---------------------------------------------------|
G|---------------------------------------------------|
D|--4-4-4-4-4-4-4-4-4-4-4-4-4-4-4-4-4-4--------------|
A|--5-5-5-5-5-5-5-5-5-5-5-5-5-5-5-5-5-5--------------|
E|--7-7-7-7-7-7-7-7-7-7-7-7-7-7-7-7-7-7--------------|
    Pushing us into self destruction

e|--------------2----------------------4-----------|
B|----------------2----2-----------------3----3----|
G|---------2--------2------------2---------2-------|
D|------------------------------0------------------|
A|------4------------------------------------------|
E|--2----------------------------------------------|
They make me, make me dream
They make me, make me scream

e|--4------------------4-------------|
B|----3----2---------2-----2----2----|
G|------2----------2----------2------|
D|--------------4--------------------|
A|-----------------------------------|
E|-----------------------------------|

e|--------------------------------|
B|-----------3-----------3--------|
G|--------4----4----4------4------|
D|-----4----------4------------4--|
A|--2-----------------------------|
E|--------------------------------|
Your dream
Your scream

[Verse]
e|----------------------------------|R
B|----------------------------------|E
G|----------------------------------|P
D|----------------------------------|E
A|--9-11-12-12b-12-11-9--11-11br-9--|A
E|----------------------------------|T

[Chorus]
e|--2---------------4------------4--------2---------------------------|
B|--2---------------3------------2--------3---------------------------|
G|--2---------------2------------2--------4---------------------------|
D|--4---------------0------------4--------4---------------------------|
A|--4-------------------------------------2---------------------------|
E|--2-----------------------------------------------------------------|
     They make meeeeeeeeeee dream your dream
     They make meeeeeeeeeee scream your scream
OR

e|-2-2-2-2-2-2-2-2-2-2-2-2-2-2-2-2--5-5-5-5-5-5-5-5-5-5-5-5-5-5-5-5-|
B|-2-2-2-2-2-2-2-2-2-2-2-2-2-2-2-2--7-7-7-7-7-7-7-7-7-7-7-7-7-7-7-7-|
G|-2-2-2-2-2-2-2-2-2-2-2-2-2-2-2-2--7-7-7-7-7-7-7-7-7-7-7-7-7-7-7-7-|
D|-4-4-4-4-4-4-4-4-4-4-4-4-4-4-4-4--7-7-7-7-7-7-7-7-7-7-7-7-7-7-7-7-|
A|-4-4-4-4-4-4-4-4-4-4-4-4-4-4-4-4--5-5-5-5-5-5-5-5-5-5-5-5-5-5-5-5-|
E|-2-2-2-2-2-2-2-2-2-2-2-2-2-2-2-2--5-5-5-5-5-5-5-5-5-5-5-5-5-5-5-5-|

e|-4-4-4-4-4-4-4-4-4-4-4-4-4-4-4-4--2-2-2-2-2-2-2-2-2-2-2-2-2-2-2-2-|
B|-6-6-6-6-6-6-6-6-6-6-6-6-6-6-6-6--3-3-3-3-3-3-3-3-3-3-3-3-3-3-3-3-|
G|-6-6-6-6-6-6-6-6-6-6-6-6-6-6-6-6--4-4-4-4-4-4-4-4-4-4-4-4-4-4-4-4-|
D|-6-6-6-6-6-6-6-6-6-6-6-6-6-6-6-6--4-4-4-4-4-4-4-4-4-4-4-4-4-4-4-4-|
A|-4-4-4-4-4-4-4-4-4-4-4-4-4-4-4-4--2-2-2-2-2-2-2-2-2-2-2-2-2-2-2-2-|
E|-4-4-4-4-4-4-4-4-4-4-4-4-4-4-4-4--2-2-2-2-2-2-2-2-2-2-2-2-2-2-2-2-|

[Verse]
e|-----------------------------|
B|--7-9-10-10b-10-9-7-9-9b+r-7-|
G|-----------------------------|
D|-----------------------------|
A|-----------------------------|
E|-----------------------------|

[Chorus]
e|--2---------------4------------4--------2---------------------------|
B|--2---------------3------------2--------3---------------------------|
G|--2---------------2------------2--------4---------------------------|
D|--4---------------0------------4--------4---------------------------|
A|--4-------------------------------------2---------------------------|
E|--2-----------------------------------------------------------------|
     They make meeeeeeeeeee scream your dream
     They make meeeeeeeeeee dream your scream
OR

e|-2-2-2-2-2-2-2-2-2-2-2-2-2-2-2-2--5-5-5-5-5-5-5-5-5-5-5-5-5-5-5-5-|
B|-2-2-2-2-2-2-2-2-2-2-2-2-2-2-2-2--7-7-7-7-7-7-7-7-7-7-7-7-7-7-7-7-|
G|-2-2-2-2-2-2-2-2-2-2-2-2-2-2-2-2--7-7-7-7-7-7-7-7-7-7-7-7-7-7-7-7-|
D|-4-4-4-4-4-4-4-4-4-4-4-4-4-4-4-4--7-7-7-7-7-7-7-7-7-7-7-7-7-7-7-7-|
A|-4-4-4-4-4-4-4-4-4-4-4-4-4-4-4-4--5-5-5-5-5-5-5-5-5-5-5-5-5-5-5-5-|
E|-2-2-2-2-2-2-2-2-2-2-2-2-2-2-2-2--5-5-5-5-5-5-5-5-5-5-5-5-5-5-5-5-|


e|-4-4-4-4-4-4-4-4-4-4-4-4-4-4-4-4--2-2-2-2-2-2-2-2-2-2-2-2-2-2-2-2-|
B|-6-6-6-6-6-6-6-6-6-6-6-6-6-6-6-6--3-3-3-3-3-3-3-3-3-3-3-3-3-3-3-3-|
G|-6-6-6-6-6-6-6-6-6-6-6-6-6-6-6-6--4-4-4-4-4-4-4-4-4-4-4-4-4-4-4-4-|
D|-6-6-6-6-6-6-6-6-6-6-6-6-6-6-6-6--4-4-4-4-4-4-4-4-4-4-4-4-4-4-4-4-|
A|-4-4-4-4-4-4-4-4-4-4-4-4-4-4-4-4--2-2-2-2-2-2-2-2-2-2-2-2-2-2-2-2-|
E|-4-4-4-4-4-4-4-4-4-4-4-4-4-4-4-4--2-2-2-2-2-2-2-2-2-2-2-2-2-2-2-2-|

[Solo]
e|-----------------------------------------------------------------------|
B|7-7-7-7-7-7-7-7-7-9-9-9-9-10-10-10-10-12-12-12-12-12-12-12-14-14-14-14-|
G|-----------------------------------------------------------------------|
D|-----------------------------------------------------------------------|
A|-----------------------------------------------------------------------|
E|-----------------------------------------------------------------------|

e|------------------------------------------------------------------------|
B|15-15-17-17-18-18-18-18-18-18-18-18-18-18-18-18-18-18-18-18-18/19-18/19-|
G|------------------------------------------------------------------------|
D|------------------------------------------------------------------------|
A|------------------------------------------------------------------------|
E|------------------------------------------------------------------------|

e|------------------------14-16-17-19-17-16-14-16-17-16-14-14-16-17-19-17-|
B|18-19--21-21-19-21-19-21------------------------------------------------|
G|------------------------------------------------------------------------|
D|------------------------------------------------------------------------|
A|------------------------------------------------------------------------|
E|------------------------------------------------------------------------|

e|16-14-16-17-16-14-16-17-16-14-14-16-17-19-17-16-14-16-17-16-14-14-16-17-|
B|------------------------------------------------------------------------|
G|------------------------------------------------------------------------|
D|------------------------------------------------------------------------|
A|------------------------------------------------------------------------|
E|------------------------------------------------------------------------|

e|-19-17-16-14-16-17-16-14---|
B|---------------------------|
G|---------------------------|
D|---------------------------|
A|---------------------------|
E|---------------------------|

[Chorus]
e|--2---------------4------------4--------2---------------------------|
B|--2---------------3------------2--------3---------------------------|
G|--2---------------2------------2--------4---------------------------|
D|--4---------------0------------4--------4---------------------------|
A|--4-------------------------------------2---------------------------|
E|--2-----------------------------------------------------------------|
     They make meeeeeeeeeee scream your dream
     They make meeeeeeeeeee dream your scream
OR

e|-2-2-2-2-2-2-2-2-2-2-2-2-2-2-2-2--5-5-5-5-5-5-5-5-5-5-5-5-5-5-5-5-|
B|-2-2-2-2-2-2-2-2-2-2-2-2-2-2-2-2--7-7-7-7-7-7-7-7-7-7-7-7-7-7-7-7-|
G|-2-2-2-2-2-2-2-2-2-2-2-2-2-2-2-2--7-7-7-7-7-7-7-7-7-7-7-7-7-7-7-7-|
D|-4-4-4-4-4-4-4-4-4-4-4-4-4-4-4-4--7-7-7-7-7-7-7-7-7-7-7-7-7-7-7-7-|
A|-4-4-4-4-4-4-4-4-4-4-4-4-4-4-4-4--5-5-5-5-5-5-5-5-5-5-5-5-5-5-5-5-|
E|-2-2-2-2-2-2-2-2-2-2-2-2-2-2-2-2--5-5-5-5-5-5-5-5-5-5-5-5-5-5-5-5-|

e|-4-4-4-4-4-4-4-4-4-4-4-4-4-4-4-4--2-2-2-2-2-2-2-2-2-2-2-2-2-2-2-2-|
B|-6-6-6-6-6-6-6-6-6-6-6-6-6-6-6-6--3-3-3-3-3-3-3-3-3-3-3-3-3-3-3-3-|
G|-6-6-6-6-6-6-6-6-6-6-6-6-6-6-6-6--4-4-4-4-4-4-4-4-4-4-4-4-4-4-4-4-|
D|-6-6-6-6-6-6-6-6-6-6-6-6-6-6-6-6--4-4-4-4-4-4-4-4-4-4-4-4-4-4-4-4-|
A|-4-4-4-4-4-4-4-4-4-4-4-4-4-4-4-4--2-2-2-2-2-2-2-2-2-2-2-2-2-2-2-2-|
E|-4-4-4-4-4-4-4-4-4-4-4-4-4-4-4-4--2-2-2-2-2-2-2-2-2-2-2-2-2-2-2-2-|

************************************

| b   Bend
| br  Bend release
| /   Slide up

************************************
Suggest correction
comments
print report bad tab
6 comments total. Showing first comments.
0 reply
The-Small-Print 10 Jun 14, 2006 09:10 AM

this tab's spot on, well done 5*'s

0 reply
Paul Lambeth 660 Mar 18, 2007 04:54 PM

Great, but after the solo he's just arpeggiating the chords, and screaming over it :). 4*

0 reply
makin 41 Dec 18, 2008 12:18 AM

its very complex.
I will play the solo

guest
You may want to rate the tab now too:
select rating
Wanna post a correction for this tab? Suggest correction