Oops, an error
Loading. Please wait.

Showbiz Tab

version 3
version 3

Whole song

by Muse
27,207 views 51 this week
3 commentsread comments
1 2 3 4 5
excellent!
x 12
add to favorites
launch autoscroll
font size
0
reset
how to read this tab
guitar tuner
Tab Pro tools
  • play this tab
  • loop segment
  • change instrument
  • show fretboard
  • metronome
×
Best way to learn
"Showbiz"
Autoscroll
slow
fast
+/-
esc
set tempo
stop
Contributor
Difficulty
intermediate
Muse - Showbiz
Album: Showbiz
Instrument: Guitar
Tuning: eBGDAE
Tempo: 114bpm
From the Showbiz tab book

Note: when it says "Full" or "Half" over a string bend, it refers to how far you bend the string.

E.g if it says :      Full       it means bend the string at the twelfth fret to make it sound 
                 e||--           like the 14th. If it says "Half" then bend the twelfth fret 
                 B||--           to sound like the 13th.
                 G||--
                 D||--
                 A||-12b
                 E||--

Intro
   [--Play bar 4x--]
e||----------------|----------------|----------------|----------------|
B||----------------|----------------|----------------|----------------|
G||----------------|----------------|----------------|----------------|
D||-4-4-4-4-4-4-4-4|-4-4-4-4-4-4-4-4|-4-4-4-4-4-4-4-4|-4-4-4-4-4-4-4-4|
A||----------------|-5-5-5-5-5-5-5-5|-5-5-5-5-5-5-5-5|-5-5-5-5-5-5-5-5|
E||----------------|----------------|----------------|-7-7-7-7-7-7-7-7|

e||----------------|----------------|----------------|----------------|
B||----------------|----------------|----------------|----------------|
G||----------------|----------------|----------------|----------------|
D||-4-4-4-4-4-4-4-4|-4-4-4-4-4-4-4-4|-4-4-4-4-4-4-4-4|-4-4-4-4-4-4-4-4|
A||-5-5-5-5-5-5-5-5|-5-5-5-5-5-5-5-5|-5-5-5-5-5-5-5-5|-5-5-5-5-5-5-5-5|
E||-7-7-7-7-7-7-7-7|-5-5-5-5-5-5-5-5|-5-5-5-5-5-5-5-5|-7-7-7-7-7-7-7-7|

                    F#m                               Dadd#11
                     And they make me...
e||----------------|----------------|-2--------------|---------4------|
B||----------------|----------------|---2------------|-----3-----3---2|
G||----------------|---------2------|-----2---2---2--|---2---2-----2--|
D||-4-4-4-4-4-4-4-4|-----4-----4---4|-------4--------|-0------0-------|
A||-5-5-5-5-5-5-5-5|---4---4-----4--|-----------4---4|----------------|
E||-7-7-7-7-7-7-7-7|-2--------------|----------------|----------------|

                    Amaj7#5/C#                         Bm
e||---------4-----4|---------4------|---------4-----2|---------2-----2|
B||-----3-----3----|-----2-----2---2|-----2-----2---2|-----3-----3----|
G||---2---2-----2--|---2---2-----2--|---2---2-----2--|---4---4--------|
D||-0--------------|----------------|----------------|-4--------------|
A||----------------|-4--------------|-4--------------|----------------|
E||----------------|----------------|----------------|----------------|

    Bsus2           F#m                               Dadd#11
e||---2-----2------|----------------|-2--------------|---------4-----4|
B||---2-----2------|---------2------|---2-----2-----2|-----3-----3----|
G||-4-----4---4---2|-----2-----2---2|-----2-----2----|---2---2-----2--|
D||-------------4--|---4---4-----4--|-------4-----2--|-0--------------|
A||----------------|----------------|----------------|----------------|
E||----------------|-2--------------|----------------|----------------|

                    Amaj7#5/C#                        Bm
e||---------------4|---------4------|---------4-----2|---------2-----2|
B||-3-------3-----3|-----2-----2---2|-----2-----2---2|-----3-----3---3|
G||---2---2---2----|---2---2-----2--|-2-2---2-----2--|---4---4-----4--|
D||-----0-------0--|----------------|----------------|-4--------------|
A||----------------|-4--------------|----------------|----------------|
E||----------------|----------------|----------------|----------------|


e||----------------|
B||-----3----------|
G||---4---4---4---2|
D||-4-------4---4--|
A||----------------|
E||----------------|

   Riff
            Full             Half
e||-------------------|---------------|
B||-------------------|---------------|
G||-------------------|---------------|  x8  
D||---------------x---|------------x-x|
A||-9-11-12-12b+r-x-11|-11-9-11b+r-x-x|
E||---------------x---|------------x-x|

Chorus
    F#m                              Dadd#11
e||-2-2-2-2-2-2-2-2|-2-2-2-2-2-2-2-2|-4-4-4-4-4-4-4-4|-4-4-4-4-4-4-4-4|
B||-2-2-2-2-2-2-2-2|-2-2-2-2-2-2-2-2|-3-3-3-3-3-3-3-3|-3-3-3-3-3-3-3-3|
G||-2-2-2-2-2-2-2-2|-2-2-2-2-2-2-2-2|-2-2-2-2-2-2-2-2|-2-2-2-2-2-2-2-2|
D||-4-4-4-4-4-4-4-4|-4-4-4-4-4-4-4-4|-0-0-0-0-0-0-0-0|-0-0-0-0-0-0-0-0|
A||-4-4-4-4-4-4-4-4|-4-4-4-4-4-4-4-4|----------------|----------------|
E||-2-2-2-2-2-2-2-2|-2-2-2-2-2-2-2-2|----------------|----------------|

   Amaj7#5/C#                        Bm               Bsus2
e||-4-4-4-4-4-4-4-4|-4-4-4-4-4-4-4-4|-2-2-2-2-2-2-2-2|-2-2-2-2-2-2-2-2|
B||-2-2-2-2-2-2-2-2|-2-2-2-2-2-2-2-2|-3-3-3-3-3-3-3-3|-2-2-2-2-2-2-2-2|
G||-2-2-2-2-2-2-2-2|-2-2-2-2-2-2-2-2|-4-4-4-4-4-4-4-4|-4-4-4-4-4-4-4-4|
D||-2-2-2-2-2-2-2-2|-2-2-2-2-2-2-2-2|-4-4-4-4-4-4-4-4|-4-4-4-4-4-4-4-4|
A||-4-4-4-4-4-4-4-4|-4-4-4-4-4-4-4-4|----------------|----------------|
E||----------------|----------------|----------------|----------------|

   w/wah wah
e||----------------------------------------|----------------------------------------|
B||----------------------------------------|----------------------------------------|
G||-11-11-----11-11-----11-11-----11-11----|-11-11-----11-11-----11-11-----11-11----|
D||-x--x------x--x------x--x------x--x-----|-x--x------x--x------x--x------x--x-----|
A||-x--x--9-9-x--x--9-9-x--x--9-9-x--x--9-9|-x--x--9-9-x--x--9-9-x--x--9-9-x--x-----|
E||-x--x--x-x-x--x--x-x-x--x--x-x-x--x--x-x|-x--x--x-x-x--x--x-x-x--x--x-x-x--x-----|


e||----------------------------------------|------------------------------------------|
B||----------------------------------------|------------------------------------------|
G||-11-11----------11-11--------------11-11|-------------11-11-11-11-11-11-11-11-11-11|
D||-x--x-----------x--x---------------x--x-|-------------x--x--x--x--x--x--x--x--x--x-|
A||-x--x--9-9-9-9--x--x-9-9-9-9-9-9---x--x-|-9-9-9-9-9-9-x--x--x--x--x--x--x--x--x--x-|
E||-x--x--x-x-x-x--x--x-x-x-x-x-x-x---x--x-|-x-x-x-x-x-x-x--x--x--x--x--x--x--x--x--x-|

             Full              Half
e||-----------------------|----------------|
B||-----------------------|----------------|
G||-11-13-14-14b+r--14--13|-11-13b+r-11----| x6
D||-----------------------|----------------|
A||-----------------------|-------------9-9|
E||-----------------------|----------------|

Repeat chorus

Solo
   [--------Tremolo picked---------]   [--------Tremolo picked--------]          Full
e||---|------|---|---------|---|--------|----------|------------------|-------------------|
B||---|------|---|---------|---|-------6|/19\7/19\7|-19-21-19-21-19-21|-19-21-22-22b-22-21|
G||-11|-13-14|-16|-18-19-21|-22|-22-22--|----------|------------------|-------------------|
D||---|------|---|---------|---|-------3|/16\4/16\4|-16-18-21-19-16-19|-------------------|
A||-9-|-11-12|-14|-16-17-19|-20|-20-20--|----------|------------------|-------------------|
E||---|------|---|---------|---|--------|----------|------------------|-------------------|

                      [--------------Play x3-------------]
               Half             Full             Half
e||------------------|-------------------|---------------|-------------------|---|
B||-21-19-21-21b+r-19|-19-21-22-22b-22-21|-19-21-21b+r-19|-19-21-22-22b-22-21|-19|
G||------------------|-------------------|---------------|-------------------|---|
D||------------------|-------------------|---------------|-------------------|---|
A||------------------|-------------------|---------------|-------------------|---|
E||------------------|-------------------|---------------|-------------------|---|

Outro

e||---------2|-|---------4|-|---------4|-|---------2|-|---------2|-|---------4|
B||-----2---2|-|-----3----|-|-----2----|-|-----3----|-|-----2---2|-|-----3----|
G||---2---2--|-|---2---2--|-|---2---2--|-|---4---4--|-|---2---2--|-|---2---2--|
D||----------|-|-0--------|-|----------|-|-4--------|-|----------|-|-0--------|
A||----------|-|----------|-|-4--------|-|----------|-|----------|-|----------|
E||-2--------|-|----------|-|----------|-|----------|-|-2--------|-|----------|

                                 [-Tremolo picked-]
e||---------4|-|-2-2-2-2-2-2-2-2|-----------------|---|
B||-----2----|-|-3-3-3-3-3-3-3-3|-----------------|---|
G||---2---2--|-|-4-4-4-4-4-4-4-4|-11--------------|-11|
D||----------|-|-4-4-4-4-4-4-4-4|-----------------|---|
A||-4--------|-|----------------|-9---------------|-9-|
E||----------|-|----------------|-----------------|---|

Please comment and rate. 
comments
print report bad tab
3 comments total.
+2 reply
WyvernOmega wrote on August 31 2010, 05:09 pm

Terrific tab, good sir :D

+1 reply
Julz127 wrote on December 20 2010, 03:40 am

I concur, rather splendid, old chap.

0 reply
ConnerSFC wrote on February 26 2011, 04:50 pm

Finally, a truly accurate tab for this most glorious song :D well done, respect

I want to post or [tab]
guest
You may want to rate the tab now too:
select rating
Please do not post tabs as comments. Select "correction" instead!