Oops, an error
Loading. Please wait.

Shrinking Universe Bass Tab

version 1
version 1

Whole song

Interactive

by Muse
2,093 views 1 this week
3 commentsread comments
1 2 3 4 5
accurate
x 5
add to favorites
launch autoscroll
font size
0
reset
guitar tuner
Autoscroll
slow
fast
+/-
esc
set tempo
stop
Help us to improve Ultimate-Guitar.com Take our survey!
×
Author
Difficulty
novice
Band: Muse
Song: Shrinking Universe
Album: Hullabaloo CD1 (2002)
Bassist: Chris Wolstenholme
Tuning: Standard

Made some little corrections. I transposed whole tab from Dropped D tuning
to Standard although notes are still the same like they were before.

Verse:

G|---------|    |---------|     
D|---------|    |---------| 
A|---------|    |---------|     
E|5\-------|    |5-5\-----| x3 

G|---------|    |---------|    |------------|    Last slide
D|---------|    |---------|    |------------|   perform just
A|---------|    |---------|    |------------| before chorus bar
E|5\-------|    |5-5\-----| x2 |5-5\------5\|

Chorus:

G|----------------------------------------------|
D|----------------------------------------------|
A|--------------------------------------5-------|
E|5\--------10\--------10-12\----10\------5~----|
 
Verse:

G|---------------------------------------|        Let them ring
D|---------------------------------------|        for some time
A|---------------------------------------|
E|5~-------5-55~-----5-5~------5-55~-----|  Listen to the song for this

G|---------------------------------------|
D|---------------------------------------|
A|---------------------------------------|
E|5-5~-----5-55~-----5-5~------5-55~-----|

Chorus:

G|----------------------------------------------------------------------|
D|----------------------------------------------------------------------|
A|------------------------------------------------------------5-5-------|
E|55\----5-5-9\----9-9-10\----------10-10-12\----12-12-10\--------5~----|


Interlude: 

G|----------| At first play one note, then no bass till 1:58.
D|----------|
A|----------|
E|0~--------|

Chorus:

G|----------------|----------------|----------------|
D|----------------|----------------|----------------|
A|0000000000000000|--------55555555|3333333344444444|
E|----------------|00000000--------|----------------|

G|----------------|----------------|----------------|----------------|
D|----------------|----------------|----------------|----------------|
A|0000000044444444|5555555555555555|--------55555555|0000000000000000|
E|----------------|----------------|00000000--------|----------------| x2

G|----------------|----------------|----------------|----------------|
D|----------------|----------------|----------------|----------------|
A|0000000044444444|5555555555555555|--------5~------|0~--------------|
E|----------------|----------------|0~--------------|----------------|

/  slide up
\  slide down
h  hammer-on
p  pull-off
~  let ring
Suggest correction
comments
print report bad tab
3 comments total. show 2 bad comments
+1 reply
4useless 2,620 wrote on November 28 2009, 08:57 am

So where's Your tab? Maybe it's time to wash your ears? :D

guest
You may want to rate the tab now too:
select rating
Please do not post tabs as comments. Select "correction" instead!