Oops, an error
Loading. Please wait.

Shrinking Universe Tab

version 1
version 1

Solo

  • This is Matt's vocal solo converted to guitar tab.

Interactive

by Muse
34 views 3 this week
no commentswrite comment
1 2 3 4 5
3 more votes to show rating
add to favorites
launch autoscroll
font size
0
reset
how to read this tab
guitar tuner
Autoscroll
slow
fast
+/-
esc
set tempo
stop
Help us to improve Ultimate-Guitar.com Take our survey!
×
Author
Difficulty
novice
About this tab version
This is Matt's vocal solo converted to guitar tab. Was this info helpful? Yes No
[Solo]


(01:58)
e|----------------|----------------|----------------|----------------|
B|----------5~----|----------6~----|--5~------5~----|----------------|
G|----------------|----------------|----------------|----------------|
D|----------------|----------------|----------------|----------------|
A|----------------|----------------|----------------|----------------|
E|----------------|----------------|----------------|----------------|


e|----------------|----------------|
B|----------5~----|--1---0---0-----|
G|----------------|--------------2-|
D|----------------|----------------|
A|----------------|----------------|
E|----------------|----------------|


e|--12-12-12~-----|---------12~----|--12-12-12~-----|--10-10~--------|
B|----------------|----------------|----------------|----------------|
G|----------------|----------------|----------------|----------------|
D|----------------|----------------|----------------|----------------|
A|----------------|----------------|----------------|----------------|
E|----------------|----------------|----------------|----------------|
                                                                     |(x2)
e|-12---8---7~----|---------7/10~--|----8-7---------|-7~------5/8~---|
B|----------------|----------------|----------------|----------------|
G|----------------|----------------|----------------|----------------|
D|----------------|----------------|----------------|----------------|
A|----------------|----------------|----------------|----------------|
E|----------------|----------------|----------------|----------------|



************************************

 /      Slide up
 ~      Vibrato

************************************
Suggest correction
Give kudos to tab author, rate the tab!
1 2 3 4 5
comments
print report bad tab
guest
You may want to rate the tab now too:
select rating
Wanna post a correction for this tab? Suggest correction