Oops, an error
Loading. Please wait.

Sing For Absolution Tab

version 1
version 1

Acoustic

Whole song

33,448 views 21 this week
2 commentsread comments
1 2 3 4 5
x 7
add to favorites
launch autoscroll
font size
0
reset
how to read this tab
guitar tuner
×
Best way to learn
"Sing For Absolution"
Autoscroll
slow
fast
+/-
esc
set tempo
stop
Muse - Sing For Absolution (Acoustic)
Any comments, questions or queries then mail me at ruled_by_secrecy_6@hotmail.com

This is the acoustic version they did for Jonathon Ross on Radio 2 
a while back.

e|----------------------------------|
B|----------3---------------3-------|
G|------4-----4---4-----4-----4---4-|
D|----4---4-----4-----4---4-----4---|
A|--2---------------2---------------|
E|----------------------------------|


                                                                      
e|----------------------------------|----------------------------------|
B|----------3---------------3-------|----------3---------------3-------|
G|------4-----4---4-----4-----4---4-|------4-----4---4-----4-----4---4-|
D|----4---4-----4-----4---4-----4---|----4---4-----4-----4---4-----4---|
A|--2---------------2---------------|----------------------------------|
E|----------------------------------|--3---------------3---------------|


                                                                      
e|----------------------------------|----------------------------------|
B|----------3---------------3-------|----------2---------------2-------|
G|------4-----4---4-----4-----4---4-|------4-----4---4-----4-----4---4-|
D|----4---4-----4-----4---4-----4---|----3---3-----3-----3---3-----3---|
A|----------------------------------|--4---------------4---------------|
E|--3---------------3---------------|----------------------------------|


                                                                      
e|----------------------------------|----------------------------------|
B|----------2---------------2-------|----------2---------------2-------|
G|------4-----4---4-----4-----4---4-|------4-----4---4-----4-----4---4-|
D|----3---3-----3-----3---3-----3---|----4---4-----4-----4---4-----4---|
A|--4---------------4---------------|----------------------------------|
E|----------------------------------|--2---------------2---------------|


                                                                      
e|----------------------------------|----------------------------------|
B|----------2---------------2-------|----------3---------------3-------|
G|------3-----3---3-----3-----3---3-|------4-----4---4-----4-----4---4-|
D|----4---4-----4-----4---4-----4---|----4---4-----4-----4---4-----4---|
A|----------------------------------|--2---------------2---------------|
E|--2---------------2---------------|----------------------------------|


                                                                      
e|----------------------------------|----------------------------------|
B|----------3---------------3-------|----------3---------------3-------|
G|------4-----4---4-----4-----4---4-|------4-----4---4-----4-----4---4-|
D|----4---4-----4-----4---4-----4---|----4---4-----4-----4---4-----4---|
A|--2---------------2---------------|----------------------------------|
E|----------------------------------|--3---------------3---------------|


                                                                      
e|----------------------------------|----------------------------------|
B|----------3---------------3-------|----------2---------------2-------|
G|------4-----4---4-----4-----4---4-|------4-----4---4-----4-----4---4-|
D|----4---4-----4-----4---4-----4---|----3---3-----3-----3---3-----3---|
A|----------------------------------|--4---------------4---------------|
E|--3---------------3---------------|----------------------------------|


                                                                      
e|----------------------------------|----------------------------------|
B|----------2---------------2-------|----------2---------------2-------|
G|------4-----4---4-----4-----4---4-|------4-----4---4-----4-----4---4-|
D|----3---3-----3-----3---3-----3---|----4---4-----4-----4---4-----4---|
A|--4---------------4---------------|----------------------------------|
E|----------------------------------|--2---------------2---------------|


                                                                      
e|----------------------------------|----------------------------------|
B|----------2---------------2-------|----------3---------------3-------|
G|------3-----3---3-----3-----3---3-|------4-----4---4-----4-----4---4-|
D|----4---4-----4-----4---4-----4---|----4---4-----4-----4---4-----4---|
A|----------------------------------|--2---------------2---------------|
E|--2---------------2---------------|----------------------------------|


                                                                      
e|----------------------------------|----------------------------------|
B|----------3---------------3-------|----------3---------------3-------|
G|------4-----4---4-----4-----4---4-|------4-----4---4-----4-----4---4-|
D|----4---4-----4-----4---4-----4---|----4---4-----4-----4---4-----4---|
A|--2---------------2---------------|----------------------------------|
E|----------------------------------|--3---------------3---------------|


                                                                      
e|----------------------------------|----------------------------------|
B|----------3---------------3-------|----------2---------------2-------|
G|------4-----4---4-----4-----4---4-|------4-----4---4-----4-----4---4-|
D|----4---4-----4-----4---4-----4---|----3---3-----3-----3---3-----3---|
A|----------------------------------|--4---------------4---------------|
E|--3---------------3---------------|----------------------------------|


                                                                      
e|----------------------------------|----------------------------------|
B|----------2---------------2-------|----------2---------------2-------|
G|------4-----4---4-----4-----4---4-|------4-----4---4-----4-----4---4-|
D|----3---3-----3-----3---3-----3---|----4---4-----4-----4---4-----4---|
A|--4---------------4---------------|----------------------------------|
E|----------------------------------|--2---------------2---------------|


                                                          
e|-----------------------------|--0------------------------|
B|----------2------------------|--2-2-2--2--2--2--2--2--2--|
G|------3-----3---3------------|--2-2-2--2--2--2--2--2--2--|
D|----4---4-----4--------------|--2-2-2--2--2--2--2--2--2--|
A|-----------------------------|--0-0-0--0--0--0--0--0--0--|
E|--2-----------------2--2--4--|--0-0-0--0--0--0--0--0--0--|


                                                        
e|--0-0-0--0--0--0--0--0--0--|--0-0-0--0--0--0--0--0--0--|
B|--2-2-2--2--2--2--2--2--2--|--8-8-8--8--8--8--8--8--8--|
G|--2-2-2--2--2--2--2--2--2--|--9-9-9--9--9--9--9--9--9--|
D|--2-2-2--2--2--2--2--2--2--|--9-9-9--9--9--9--9--9--9--|
A|--0-0-0--0--0--0--0--0--0--|--7-7-7--7--7--7--7--7--7--|
E|--0-0-0--0--0--0--0--0--0--|--0-0-0--0--0--0--0--0--0--|


                                                        
e|--0-0-0--0--0--0--0--0--0--|--0------------------------|
B|--8-8-8--8--8--8--8--8--8--|--2-2-2--2--2--2--2--2--2--|
G|--9-9-9--9--9--9--9--9--9--|--2-2-2--2--2--2--2--2--2--|
D|--9-9-9--9--9--9--9--9--9--|--2-2-2--2--2--2--2--2--2--|
A|--7-7-7--7--7--7--7--7--7--|--0-0-0--0--0--0--0--0--0--|
E|--0-0-0--0--0--0--0--0--0--|--0-0-0--0--0--0--0--0--0--|


                                                        
e|--0-0-0--0--0--0--0--0--0--|--0-0-0--0--0--0--0--0--0--|
B|--2-2-2--2--2--2--2--2--2--|--8-8-8--8--8--8--8--8--8--|
G|--2-2-2--2--2--2--2--2--2--|--9-9-9--9--9--9--9--9--9--|
D|--2-2-2--2--2--2--2--2--2--|--9-9-9--9--9--9--9--9--9--|
A|--0-0-0--0--0--0--0--0--0--|--7-7-7--7--7--7--7--7--7--|
E|--0-0-0--0--0--0--0--0--0--|--0-0-0--0--0--0--0--0--0--|


                                                               
e|--0-0-0--0--0--0--0--0--0--|----------------------------------|
B|--8-8-8--8--8--8--8--8--8--|----------3---------------3-------|
G|--9-9-9--9--9--9--9--9--9--|------4-----4---4-----4-----4---4-|
D|--9-9-9--9--9--9--9--9--9--|----4---4-----4-----4---4-----4---|
A|--7-7-7--7--7--7--7--7--7--|--2---------------2---------------|
E|--0-0-0--0--0--0--0--0--0--|----------------------------------|


                                                                      
e|----------------------------------|----------------------------------|
B|----------3---------------3-------|----------3---------------3-------|
G|------4-----4---4-----4-----4---4-|------4-----4---4-----4-----4---4-|
D|----4---4-----4-----4---4-----4---|----4---4-----4-----4---4-----4---|
A|--2---------------2---------------|----------------------------------|
E|----------------------------------|--3---------------3---------------|


                                                                      
e|----------------------------------|----------------------------------|
B|----------3---------------3-------|----------2---------------2-------|
G|------4-----4---4-----4-----4---4-|------4-----4---4-----4-----4---4-|
D|----4---4-----4-----4---4-----4---|----3---3-----3-----3---3-----3---|
A|----------------------------------|--4---------------4---------------|
E|--3---------------3---------------|----------------------------------|


                                                                      
e|----------------------------------|----------------------------------|
B|----------2---------------2-------|----------2---------------2-------|
G|------4-----4---4-----4-----4---4-|------4-----4---4-----4-----4---4-|
D|----3---3-----3-----3---3-----3---|----4---4-----4-----4---4-----4---|
A|--4---------------4---------------|----------------------------------|
E|----------------------------------|--2---------------2---------------|


                                                                      
e|----------------------------------|----------------------------------|
B|----------2---------------2-------|----------------------------------|
G|------3-----3---3-----3-----3---3-|--4-4-4-4-4-4-4-4-4-4-4-4-4-4-4-4-|
D|----4---4-----4-----4---4-----4---|----------------------------------|
A|----------------------------------|--2-2-2-2-2-2-2-2-2-2-2-2-2-2-2-2-|
E|--2---------------2---------------|----------------------------------|


                                                                      
e|----------------------------------|----------------------------------|
B|----------------------------------|----------------------------------|
G|--4-4-4-4-4-4-4-4-4-4-4-4-6-6-6-6-|--7-7-7-7-7-7-7-7-7-7-7-7-7-7-7-7-|
D|----------------------------------|----------------------------------|
A|--2-2-2-2-2-2-2-2-2-2-2-2-4-4-4-4-|--5-5-5-5-5-5-5-5-5-5-5-5-5-5-5-5-|
E|----------------------------------|----------------------------------|


                                   
e|----------------------------------|
B|----------------------------------|
G|--7-7-7-7-7-7-7-7-9-9-9-9-9-9-9-9-|
D|----------------------------------|
A|--5-5-5-5-5-5-5-5-7-7-7-7-7-7-7-7-|
E|----------------------------------|


                                                   
e|--------------------------------------------------|
B|--------------------------------------------------|
G|--10-10-10-10-10-10-10-10-10-10-10-10-10-10-10-10-|
D|--------------------------------------------------|
A|--8--8--8--8--8--8--8--8--8--8--8--8--8--8--8--8--|
E|--------------------------------------------------|


                                                   
e|--------------------------------------------------|
B|--------------------------------------------------|
G|--10-10-10-10-10-10-10-10-13-13-13-13-13-13-13-13-|
D|--------------------------------------------------|
A|--8--8--8--8--8--8--8--8--11-11-11-11-11-11-11-11-|
E|--------------------------------------------------|


                                                   
e|--------------------------------------------------|
B|--------------------------------------------------|
G|--16-16-16-16-16-16-16-16-16-16-16-16-16-16-16-16-|
D|--------------------------------------------------|
A|--14-14-14-14-14-14-14-14-14-14-14-14-14-14-14-14-|
E|--------------------------------------------------|


                                                   
e|--------------------------------------------------|
B|--------------------------------------------------|
G|--15-15-15-15-15-15-15-15-15-15-15-15-15-15-15-15-|
D|--------------------------------------------------|
A|--13-13-13-13-13-13-13-13-13-13-13-13-13-13-13-13-|
E|--------------------------------------------------|


                                                                      
e|----------------------------------|----------------------------------|
B|----------------------------------|----------------------------------|
G|--4-4-4-4-4-4-4-4-4-4-4-4-4-4-4-4-|--4-4-4-4-4-4-4-4-4-4-4-4-6-6-6-6-|
D|----------------------------------|----------------------------------|
A|--2-2-2-2-2-2-2-2-2-2-2-2-2-2-2-2-|--2-2-2-2-2-2-2-2-2-2-2-2-4-4-4-4-|
E|----------------------------------|----------------------------------|


                                                                      
e|----------------------------------|----------------------------------|
B|----------------------------------|----------------------------------|
G|--7-7-7-7-7-7-7-7-7-7-7-7-7-7-7-7-|--7-7-7-7-7-7-7-7-9-9-9-9-9-9-9-9-|
D|----------------------------------|----------------------------------|
A|--5-5-5-5-5-5-5-5-5-5-5-5-5-5-5-5-|--5-5-5-5-5-5-5-5-7-7-7-7-7-7-7-7-|
E|----------------------------------|----------------------------------|


                                                   
e|--------------------------------------------------|
B|--------------------------------------------------|
G|--10-10-10-10-10-10-10-10-10-10-10-10-10-10-10-10-|
D|--------------------------------------------------|
A|--8--8--8--8--8--8--8--8--8--8--8--8--8--8--8--8--|
E|--------------------------------------------------|


                                                   
e|--------------------------------------------------|
B|--------------------------------------------------|
G|--10-10-10-10-10-10-10-10-13-13-13-13-13-13-13-13-|
D|--------------------------------------------------|
A|--8--8--8--8--8--8--8--8--11-11-11-11-11-11-11-11-|
E|--------------------------------------------------|


                                                   
e|--------------------------------------------------|
B|--------------------------------------------------|
G|--16-16-16-16-16-16-16-16-16-16-16-16-16-16-16-16-|
D|--------------------------------------------------|
A|--14-14-14-14-14-14-14-14-14-14-14-14-14-14-14-14-|
E|--------------------------------------------------|


                                                                  
e|-------------------------------------|--0------------------------|
B|-------------------------------------|--2-2-2--2--2--2--2--2--2--|
G|--15-15-15-15-15-15-15-15------------|--2-2-2--2--2--2--2--2--2--|
D|-------------------------------------|--2-2-2--2--2--2--2--2--2--|
A|--13-13-13-13-13-13-13-13------------|--0-0-0--0--0--0--0--0--0--|
E|----------------------------2--2--4--|--0-0-0--0--0--0--0--0--0--|


                                                        
e|--0-0-0--0--0--0--0--0--0--|--0-0-0--0--0--0--0--0--0--|
B|--2-2-2--2--2--2--2--2--2--|--8-8-8--8--8--8--8--8--8--|
G|--2-2-2--2--2--2--2--2--2--|--9-9-9--9--9--9--9--9--9--|
D|--2-2-2--2--2--2--2--2--2--|--9-9-9--9--9--9--9--9--9--|
A|--0-0-0--0--0--0--0--0--0--|--7-7-7--7--7--7--7--7--7--|
E|--0-0-0--0--0--0--0--0--0--|--0-0-0--0--0--0--0--0--0--|


                                                        
e|--0-0-0--0--0--0--0--0--0--|--0------------------------|
B|--8-8-8--8--8--8--8--8--8--|--2-2-2--2--2--2--2--2--2--|
G|--9-9-9--9--9--9--9--9--9--|--2-2-2--2--2--2--2--2--2--|
D|--9-9-9--9--9--9--9--9--9--|--2-2-2--2--2--2--2--2--2--|
A|--7-7-7--7--7--7--7--7--7--|--0-0-0--0--0--0--0--0--0--|
E|--0-0-0--0--0--0--0--0--0--|--0-0-0--0--0--0--0--0--0--|


                                                        
e|--0-0-0--0--0--0--0--0--0--|--0-0-0--0--0--0--0--0--0--|
B|--2-2-2--2--2--2--2--2--2--|--8-8-8--8--8--8--8--8--8--|
G|--2-2-2--2--2--2--2--2--2--|--9-9-9--9--9--9--9--9--9--|
D|--2-2-2--2--2--2--2--2--2--|--9-9-9--9--9--9--9--9--9--|
A|--0-0-0--0--0--0--0--0--0--|--7-7-7--7--7--7--7--7--7--|
E|--0-0-0--0--0--0--0--0--0--|--0-0-0--0--0--0--0--0--0--|


                                                
e|--0-0-0--0--0--0--0--0--0--|-----------------------------|
B|--8-8-8--8--8--8--8--8--8--|--3--3--3--3-3-3-3-3--3--3-3-|
G|--9-9-9--9--9--9--9--9--9--|--4--4--4--4---4-4-4--4--4-4-|
D|--9-9-9--9--9--9--9--9--9--|--0--0--0--0-0-0-0-0--0--0-0-|
A|--7-7-7--7--7--7--7--7--7--|--2--2--2--2-2-2-2-2--2--2-2-|
E|--0-0-0--0--0--0--0--0--0--|-----------------------------|


                                                            
e|-----------------------------|-----------------------------|
B|--3-3-3--3--3-3-3-3-3--3--3--|--3--3--3--3-3-3-3-3--3--3-3-|
G|--4-4-4--4--4-4-4-4-4--4--4--|--4--4--4--4-4-4-4-4--4--4-4-|
D|--0-0-0--0--0-0-0-0-0--0--0--|--5--5--5--5-5-5-5-5--5--5-5-|
A|--2-2-2--2--2-2-2-2-2--2--2--|--5--2--5--5-5-5-5-5--5--5-5-|
E|-----------------------------|-----------------------------|


                                                            
e|-----------------------------|-----------------------------|
B|--3-3-3--3--3-3-3-3-3--3--3--|--2--2--2--2-2-2-2-2--2--2-2-|
G|--4-4-4--4--4-4-4-4-4--4--4--|--4--4--4--4-4-4-4-4--4--4-4-|
D|--5-5-5--5--5-5-5-5-5--5--5--|--3--3--3--3-3-3-3-3--3--3-3-|
A|--5-5-5--5--5-5-5-5-5--5--5--|--4--4--4--4-4-4-4-4--4--4-4-|
E|-----------------------------|-----------------------------|


                                                         
e|-----------------------------|--------------------------|
B|--2-2-2--2--2-2-2-2-2--2--2--|--2--2--2--2--2--2--2--2--|
G|--4-4-4--4--4-4-4-4-4--4--4--|--4--4--4--4--4--4--4--4--|
D|--3-3-3--3--3-3-3-3-3--3--3--|--4--4--4--4--4--4--4--4--|
A|--4-4-4--4--4-4-4-4-4--4--4--|--4--4--4--4--4--4--4--4--|
E|-----------------------------|--2--2--2--2--2--2--2--2--|


                                                       
e|--------------------------|--0------------------------|
B|--2--2--2--2--2-----------|--2-2-2--2--2--2--2--2--2--|
G|--3--3--3--3--3-----------|--2-2-2--2--2--2--2--2--2--|
D|--4--4--4--4--4-----------|--2-2-2--2--2--2--2--2--2--|
A|--4--4--4--4--4-----------|--0-0-0--0--0--0--0--0--0--|
E|--2--2--2--2--2--2--2--4--|--0-0-0--0--0--0--0--0--0--|


                                                        
e|--0-0-0--0--0--0--0--0--0--|--0-0-0--0--0--0--0--0--0--|
B|--2-2-2--2--2--2--2--2--2--|--8-8-8--8--8--8--8--8--8--|
G|--2-2-2--2--2--2--2--2--2--|--9-9-9--9--9--9--9--9--9--|
D|--2-2-2--2--2--2--2--2--2--|--9-9-9--9--9--9--9--9--9--|
A|--0-0-0--0--0--0--0--0--0--|--7-7-7--7--7--7--7--7--7--|
E|--0-0-0--0--0--0--0--0--0--|--0-0-0--0--0--0--0--0--0--|


                                                        
e|--0-0-0--0--0--0--0--0--0--|--0------------------------|
B|--8-8-8--8--8--8--8--8--8--|--2-2-2--2--2--2--2--2--2--|
G|--9-9-9--9--9--9--9--9--9--|--2-2-2--2--2--2--2--2--2--|
D|--9-9-9--9--9--9--9--9--9--|--2-2-2--2--2--2--2--2--2--|
A|--7-7-7--7--7--7--7--7--7--|--0-0-0--0--0--0--0--0--0--|
E|--0-0-0--0--0--0--0--0--0--|--0-0-0--0--0--0--0--0--0--|


                                                        
e|--0-0-0--0--0--0--0--0--0--|--0-0-0--0--0--0--0--0--0--|
B|--2-2-2--2--2--2--2--2--2--|--8-8-8--8--8--8--8--8--8--|
G|--2-2-2--2--2--2--2--2--2--|--9-9-9--9--9--9--9--9--9--|
D|--2-2-2--2--2--2--2--2--2--|--9-9-9--9--9--9--9--9--9--|
A|--0-0-0--0--0--0--0--0--0--|--7-7-7--7--7--7--7--7--7--|
E|--0-0-0--0--0--0--0--0--0--|--0-0-0--0--0--0--0--0--0--|


                                                  
e|--0-0-0--0--0--0--0--0--0--|-----------------------------|
B|--8-8-8--8--8--8--8--8--8--|--3--3--3--3-3-3-3-3--3--3-3-|
G|--9-9-9--9--9--9--9--9--9--|--4--4--4--4---4-4-4--4--4-4-|
D|--9-9-9--9--9--9--9--9--9--|--0--0--0--0-0-0-0-0--0--0-0-|
A|--7-7-7--7--7--7--7--7--7--|--2--2--2--2-2-2-2-2--2--2-2-|
E|--0-0-0--0--0--0--0--0--0--|-----------------------------|


                                                            
e|-----------------------------|-----------------------------|
B|--3-3-3--3--3-3-3-3-3--3--3--|--3--3--3--3-3-3-3-3--3--3-3-|
G|--4-4-4--4--4-4-4-4-4--4--4--|--4--4--4--4-4-4-4-4--4--4-4-|
D|--0-0-0--0--0-0-0-0-0--0--0--|--5--5--5--5-5-5-5-5--5--5-5-|
A|--2-2-2--2--2-2-2-2-2--2--2--|--5--2--5--5-5-5-5-5--5--5-5-|
E|-----------------------------|-----------------------------|


                                                            
e|-----------------------------|-----------------------------|
B|--3-3-3--3--3-3-3-3-3--3--3--|--2--2--2--2-2-2-2-2--2--2-2-|
G|--4-4-4--4--4-4-4-4-4--4--4--|--4--4--4--4-4-4-4-4--4--4-4-|
D|--5-5-5--5--5-5-5-5-5--5--5--|--3--3--3--3-3-3-3-3--3--3-3-|
A|--5-5-5--5--5-5-5-5-5--5--5--|--4--4--4--4-4-4-4-4--4--4-4-|
E|-----------------------------|-----------------------------|


                                                         
e|-----------------------------|--------------------------|
B|--2-2-2--2--2-2-2-2-2--2--2--|--2--2--2--2--2--2--2--2--|
G|--4-4-4--4--4-4-4-4-4--4--4--|--4--4--4--4--4--4--4--4--|
D|--3-3-3--3--3-3-3-3-3--3--3--|--4--4--4--4--4--4--4--4--|
A|--4-4-4--4--4-4-4-4-4--4--4--|--4--4--4--4--4--4--4--4--|
E|-----------------------------|--2--2--2--2--2--2--2--2--|


                                                              
e|--------------------------|----------------------------------|
B|--2--2--2--2--2--2--2--2--|----------3---------------3-------|
G|--3--3--3--3--3--3--3--3--|------4-----4---4-----4-----4---4-|
D|--4--4--4--4--4--4--4--4--|----4---4-----4-----4---4-----4---|
A|--4--4--4--4--4--4--4--4--|--2---------------2---------------|
E|--2--2--2--2--2--2--2--2--|----------------------------------|


                                                                      
e|----------------------------------|----------------------------------|
B|----------3---------------3-------|----------3---------------3-------|
G|------4-----4---4-----4-----4---4-|------4-----4---4-----4-----4---4-|
D|----4---4-----4-----4---4-----4---|----4---4-----4-----4---4-----4---|
A|--2---------------2---------------|--2---------------2---------------|
E|----------------------------------|----------------------------------|


                                                                  
e|----------------------------------|-----------------------------||
B|----------3---------------3-------|-----------------------------||
G|------4-----4---4-----4-----4---4-|--4-4-4-4-4-4-4-4------------||
D|----4---4-----4-----4---4-----4---|--4-4-4-4-4-4-4-4------------||
A|--2---------------2---------------|-----------------------------||
E|----------------------------------|-----------------------------||
Suggest correction
comments
print report bad tab
2 comments total.
0 reply
ctb 269 Dec 22, 2004 07:00 PM

reeeeeeaaaal coool

+2 reply
mikeofthechimps 40 Dec 29, 2005 07:09 AM

its an awesome version of the song - and easier to sing than the album version!
only thing that would be nice would be some pointers like "Verse:" or "Chorus" although it is pretty obvious i guess.

guest
You may want to rate the tab now too:
select rating
Wanna post a correction for this tab? Suggest correction