Oops, an error
Loading. Please wait.

Sing For Absolution Bass Tab

version 1
version 1

Live

Whole song

by Muse
673 views 1 this week
no commentswrite comment
1 2 3 4 5
please rate
add to favorites
launch autoscroll
font size
0
reset
guitar tuner
Autoscroll
slow
fast
+/-
esc
set tempo
stop
Help us to improve Ultimate-Guitar.com Take our survey!
×
Author
Difficulty
Tuning
novice
D# G# C# F# A# D#
Band: Muse
Song: Sing For Absolution Live (Glastonbury 24.07.2004)
Tour: Absolution Tour
Bassist: Chris Wolstenholme
Tuning: Half Step Down

Intro and verse:

F#|----------------------------------------------------| |
C#|----------------------------------------------------| |
G#|5-5--5--5--5-5-5--5--5--5---------------------------| |
D#|--------------------------6-6--6--6--6-6-6--6--6--6-| |
                                                         | x2
F#|----------------------------------------------------| |
C#|----------------------------------------------------| |
G#|7-7--7--7--7-7-7--7--7--7---------------------------| |
D#|--------------------------5-5--5--5--5-5-5--5--5-8-5| |

F#|----------------------------------------------------|
C#|----------------------------------------------------|
G#|5-5--5--5--5-5-5--5--5--5---------------------------|
D#|--------------------------6-6--6--6--6-6-6--6--6--6-|

F#|----------------------------------------------------|
C#|----------------------------------------------------|
G#|7-7--7--7--7-7-7--7--7--7---------------------------|
D#|--------------------------5-5--5--5--5-5-5--5--5-5-7|

Chorus:

F#|----------------------------------------------------------------|
C#|------------------------3-3-5-5-5-5-5-5-5-5-5-5-5-5-5-5-3-3-2-2-|
G#|3-3-3-3-3-3-3-3-3-3-3-3-----------------------------------------|
D#|----------------------------------------------------------------|

F#|----------------------------------------------------------------|
C#|----------------------------------------------------------------|
G#|3-3-3-3-3-3-3-3-3-3-3-3-1-1-0-0---------------------------------|
D#|--------------------------------3-3-3-3-3-3-3-3-3-3-3-3-3-3-3-3-|

Bridge and Verse:

F#|----------------------------------------------------|
C#|----------------------------------------------------|
G#|5-5--5--5--5-5-5--5--5--5---------------------------|
D#|--------------------------6-6--6--6--6-6-6--6--6--6-|

F#|----------------------------------------------------|
C#|----------------------------------------------------|
G#|7-7--7--7--7-7-7--7--7--7---------------------------|
D#|--------------------------5-5--5--5--5-5-5--5--5-8-5|

F#|----------------------------------------------------|
C#|----------------------------------------------------|
G#|5-5--5--5--5-5-5--5--5--5---------------------------|
D#|--------------------------6-6--6--6--6-6-6--6--6--6-|

F#|----------------------------------------------------|
C#|----------------------------------------------------|
G#|7-7--7--7--7-7-7--7--7--7-----------------------3-34|
D#|--------------------------5-5--5--5--5-5-5--5--5-5--|

F#|----------------------------------------------------|
C#|----------------------------------------------------|
G#|5-5--5--5--5-5-5--5--5--5---------------------------|
D#|--------------------------6-6--6--6--6-6-6--6--6--6-|

F#|----------------------------------------------------|
C#|----------------------------------------------------|
G#|7-7--7--7--7-7-7--7--7--7---------------------------|
D#|--------------------------5-5--5--5--5-5-5--5--5-5-7|

Chorus:

F#|----------------------------------------------------------------|
C#|------------------------2-2-3-3-5-5-5-5-5-5-5-5-5-5-5-5-3-3-2-2-|
G#|3-3-3-3-3-3-3-3-3-3-3-3-----------------------------------------|
D#|----------------------------------------------------------------|

F#|----------------------------------------------------------------|
C#|----------------------------------------------------------------|
G#|3-3-3-3-3-3-3-3-3-3-3-3-1-1-0-0---------------------------------|
D#|--------------------------------3-3-3-3-3-3-3-3-3-3-3-3-3-3-3-3-|

Bridge:

F#|----------------------------------------------------------------|
C#|----------------------------------------------------------------|
G#|5-5-5-5-5-5-5-5-5-5-5-5-5-5-5-5---------------------------------|
D#|--------------------------------6-6-6-6-6-6-6-6-6-6-6-6-6-6-6-6-|

F#|----------------------------------------------------------------|
C#|----------------------------------------------------------------|
G#|----------------------------------------------------------------|
D#|0-0-0-0-0-0-0-0-0-0-0-0-0-0-0-0-5-5-5-5-5-5-5-5-5-5-5-5-5-5-5-7-|

Chorus:

F#|----------------------------------------------------------------|
C#|------------------------3-3-4-4-5-5-5-5-5-5-5-5-5-5-5-5-3-3-2-2-|
G#|3-3-3-3-3-3-3-3-3-3-3-3-----------------------------------------|
D#|----------------------------------------------------------------|

F#|----------------------------------------------------------------|
C#|----------------------------------------------------------------|
G#|3-3-3-3-3-3-3-3-3-3-3-3-1-1-0-0---------------------------------|
D#|--------------------------------3-3-3-3-3-3-3-3-3-3-3-3-3-3/15\-|

Bridge:

F#|----------------------------------------------------------------|
C#|----------------------------------------------------------------|
G#|5-5-5-5-5-5-5-5-5-5-5-5-5-5-5-5---------------------------------|
D#|--------------------------------6-6-6-6-6-6-6-6-6-6-6-6-6-6-6-6-|

F#|----------------------------------------------------------------|
C#|----------------------------------------------------------------|
G#|----------------------------------------------------------------|
D#|0-0-0-0-0-0-0-0-0-0-0-0-0-0-0-0-5-5-5-5-5-5-5-5-5-5-5-5-5-5-5-5-|

Outro:

F#|------------------|    |-----------------------------|
C#|15-0-7-0-8-0-17-0-|    |15-0-7-0-8-0-17-15-12~-------|
G#|------------------|    |-----------------------------|
D#|------------------| x3 |-----------------------------|

/  slide up
\  slide down
h  hammer-on
p  pull-off
~  let ring
Suggest correction
Give kudos to tab author, rate the tab!
1 2 3 4 5
comments
print report bad tab
guest
You may want to rate the tab now too:
select rating
Please do not post tabs as comments. Select "correction" instead!