Oops, an error
Loading. Please wait.

Sing For Absolution Tab

version 2
version 2

Live

Whole song

by Muse
3,089 views 12 this week
no commentswrite comment
1 2 3 4 5
please rate
add to favorites
launch autoscroll
font size
0
reset
how to read this tab
guitar tuner
Autoscroll
slow
fast
+/-
esc
set tempo
stop
Help us to improve Ultimate-Guitar.com Take our survey!
×
Difficulty
Tuning
intermediate
D# G# C# F# A# D#
Artist : MUSE

Album: Absolution (2003)

Live Performance: Glastonbury 2004

| /  slide up
| \  slide down
| h  hammer-on
| p  pull-off
| ~  vibrato
| +  harmonic
| x  Mute note
|PM  Palm Mute


Tuning: Half-Step Down!!!

	D#  A#  F#  C#  G#  D#

Tabbed: Ollie Taylor

First Published Tab sounds right when you play along (some of the timing might not be perfect!)

Intro: 	Slight Delay (similiar to Starlight)

|---13--(13)----------------------15--(15)------13--(13)----------------------15--(15)---||
|-------------10--(10)--11--(11)--------------------------10--(10)--11--(11)-------------||
|----------------------------------------------------------------------------------------||
|----------------------------------------------------------------------------------------||
|----------------------------------------------------------------------------------------||
|----------------------------------------------------------------------------------------||


|---13--(13)----------------------15--(15)------13--(13)----------------------15--(15)---||
|-------------10--(10)--11--(11)--------------------------10--(10)--11--(11)-------------||
|----------------------------------------------------------------------------------------||
|----------------------------------------------------------------------------------------||
|----------------------------------------------------------------------------------------||
|----------------------------------------------------------------------------------------||


--13--(13)--12--(12)----------10--(10)--|
----------------------9--(9)------------|
----------------------------------------|
----------------------------------------|
----------------------------------------|
----------------------------------------|


--13--(13)--12--(12)----------10--(10)--|--13--(13)--12--(12)----------9--(9)--|
----------------------9--(9)------------|----------------------8--(8)----------|
----------------------------------------|--------------------------------------|
----------------------------------------|--------------------------------------|
----------------------------------------|--------------------------------------|
----------------------------------------|--------------------------------------|

--13--(13)--12--(12)----------9--(9)----12--(12)--||
----------------------8--(8)----------------------||
--------------------------------------------------||
--------------------------------------------------||
--------------------------------------------------||
--------------------------------------------------||


Verse 1


|---13--(13)---13--(13)---13--(13)---13--(13)---13--(13)---13--(13)---13--(13)-----------||
|----------------------------------------------------------------------------------------||
|----------------------------------------------------------------------------------------||
|----------------------------------------------------------------------------------------||
|----------------------------------------------------------------------------------------||
|----------------------------------------------------------------------------------------||
lips 	are 	turning 	blue, 	a	 kiss 	that	 can't	 renew


|---12--(12)---12--(12)---10-9-12----------||
|------------------------------------------||
|------------------------------------------||
|------------------------------------------||
|------------------------------------------||
|------------------------------------------||
I only dream of you, my beautiful


|---13--(13)---13--(13)---13--(13)---13--(13)---13--(13)---13--(13)---13--(13)-----------||
|----------------------------------------------------------------------------------------||
|----------------------------------------------------------------------------------------||
|----------------------------------------------------------------------------------------||
|----------------------------------------------------------------------------------------||
|----------------------------------------------------------------------------------------||
tiptoe	to 	your	 room,	 a	starlight	 in 	the 	gloom

|---12--(12)---12--(12)------10-9---12-----||
|------------------------------------------||
|------------------------------------------||
|------------------------------------------||
|------------------------------------------||
|------------------------------------------||
I only dream of you, and you never knew

Chorus (Overdrive)


|------------------0-------------0-|----------0---------------3-------|
|----------1---------1-----1-------|--------1---1-----------1---1---1-|
|------0-----0---0-------0---2-----|------0-------0-------0-------0---|
|----2---2-----2-------2-------0---|----2-----------2---2-------------|
|--3-------------------------------|--3---------------3---------------|
|----------------------------------|----------------------------------|
			Sing	 	for		 abso..


----------3-------3-------3-------|----------3-------3-------3-------|
------3-----3---3---3---3---3---3-|------3-----3---3---3---3---3---3-|
----3---3-----3-------3-------3---|----3---3-----3-------3-------3---|
----------------------------------|----------------------------------|
----------------------------------|----------------------------------|
--3-------------------------------|--3-------------------------------|
..lution				I 	will      be..


------------------0-------------0-|----------0-------1-------3-------|
----------1---------1-----1-------|--------1---1-------1---1---1---1-|
------0-----0---0-------0---2-----|------0-------0-------0-------0---|
----2---2-----2-------2-------0---|----2-----------2-----------------|
--3-------------------------------|--3-------------------------------|
----------------------------------|----------------------------------|
	Singing			   Falling  	from 	your..

----------3-------3-------3-------|--5-------5-------5-------5-------||
------3-----3---3---3---3---3---3-|----3---3---3---3---3---3---3---3-||
----3---3-----3-------3-------3---|------3-------3-------3-------3---||
----------------------------------|----------------------------------||
----------------------------------|----------------------------------||
--3-------------------------------|----------------------------------||
	Grace...  			Oooh..

Verse 2


No Guitar


there's nowhere left to hide, in no one to confide

the truth runs deep inside, and will never die


|---13--(13)---13--(13)---13--(13)---13--(13)---13--(13)---13--(13)---13--(13)-----------||
|----------------------------------------------------------------------------------------||
|----------------------------------------------------------------------------------------||
|----------------------------------------------------------------------------------------||
|----------------------------------------------------------------------------------------||
|----------------------------------------------------------------------------------------||
lips 	are 	turning 	blue, 	a	 kiss 	that	 can't	 renew


|---12--(12)---12--(12)---10-9-12----------||
|------------------------------------------||
|------------------------------------------||
|------------------------------------------||
|------------------------------------------||
|------------------------------------------||
I only dream of you, my beautiful


Chorus (Overdrive)


|------------------0-------------0-|----------0---------------3-------|
|----------1---------1-----1-------|--------1---1-----------1---1---1-|
|------0-----0---0-------0---2-----|------0-------0-------0-------0---|
|----2---2-----2-------2-------0---|----2-----------2---2-------------|
|--3-------------------------------|--3---------------3---------------|
|----------------------------------|----------------------------------|
			Sing	 	for		 abso..


----------3-------3-------3-------|----------3-------3-------3-------|
------3-----3---3---3---3---3---3-|------3-----3---3---3---3---3---3-|
----3---3-----3-------3-------3---|----3---3-----3-------3-------3---|
----------------------------------|----------------------------------|
----------------------------------|----------------------------------|
--3-------------------------------|--3-------------------------------|
..lution				I 	will      be..


------------------0-------------0-|----------0-------1-------3-------|
----------1---------1-----1-------|--------1---1-------1---1---1---1-|
------0-----0---0-------0---2-----|------0-------0-------0-------0---|
----2---2-----2-------2-------0---|----2-----------2-----------------|
--3-------------------------------|--3-------------------------------|
----------------------------------|----------------------------------|
	Singing			   Falling  	from 	your..

----------3-------3-------3-------|--5-------5-------5-------5-------||
------3-----3---3---3---3---3---3-|----3---3---3---3---3---3---3---3-||
----3---3-----3-------3-------3---|------3-------3-------3-------3---||
----------------------------------|----------------------------------||
----------------------------------|----------------------------------||
--3-------------------------------|----------------------------------||
	Grace...  			Oooh..

Solo (Distortion Until the end)

---------------------|-------------------|---------------------------------|
---------------------|-------------------|---------------------------------|
---------------------|-------------------|-------T-R-E-M-E-L-O--P-I-C-K----|
---------------------|-------------------|---------------------------------|
---5~------7---8-----|--10---11~---------|--14~---17~---16~---14~---16~----|
---------------------|-------------------|---------------------------------|


Last Verse


|----------------------------------------------------------------------------------------||
|----------------------------------------------------------------------------------------||
|----------------------------------------------------------------------------------------||
|14--------------15-17---15--------17--15-14--------------------15--------17------19-----||
|----------------------------------------------------------------------------------------||
|----------------------------------------------------------------------------------------||
sing	 for 	absolution,	I will be singing, 	falling from your grace,  Yeah!


|----------------------------------------------------------------------------------------||
|----------------------------------------------------------------------------------------||
|----------------------------------------------------------------------------------------||
|0--2---------3-----3---------------------------5-6-9------------7-----------------------||
|----------------------------------------------------------------------------------------||
|----------------------------------------------------------------------------------------||
our wrongs remain unrectified, 		and our souls won't be exhumed

End Riff

|-----------------------------------------------------------------------|
|-----------------------------------------------------------------------|
|-----------------------------------------------------------------------|
|12-12-12-12-12-12-12-12-10-10-12-10b-11--------------------------------|
|-------------------------------------------12-12h13--13--12--10h12p10--|
|-----------------------------------------------------------------------|

------------------------------||
---------KILLSWITCH (ON/OFF)--||
------------------------------||
------------------------------||
---8--7---5~~~~~~~~~~~--------||
------------------------------||


____
MUSE   :)
____
Suggest correction new What's this?
You can suggest a correction to this tab. Community and Mods will review your correction and vote to approve or reject it.
comments
We did not receive enough feedback on this tab! Please rate:
print report bad tab
1 2 3 4 5
guest
You may want to rate the tab now too:
select rating
Please do not post tabs as comments. Select "correction" instead!