Oops, an error
Loading. Please wait.

Sing For Absolution Tab

version 2
version 2

Whole song

by Muse
8,584 views 15 this week
2 commentsread comments
1 2 3 4 5
x 9
add to favorites
launch autoscroll
font size
0
reset
how to read this tab
guitar tuner
Autoscroll
slow
fast
+/-
esc
set tempo
stop
Help us to improve Ultimate-Guitar.com Take our survey!
×
Author
Capo
2nd fret
[Intro]
  Dm                                                  Bb
e|-13-13-------------15-15-|-13-13-------------15-15-|-13-13-------------15-15-|
B|-------10-10-11-11-------|-------10-10-11-11-------|-------10-10-11-11-------|
G|-10-10-------------12-12-|-10-10-------------12-12-|-10-10-------------12-12-|
D|--------7--7--8--8-------|--------7--7--8--8-------|--------7--7--8--8-------|
A|-------------------------|-------------------------|-------------------------|
E|-------------------------|-------------------------|-------------------------|

                             E7                     
e|-13-13-------------13-13-|-12-12-----10-10-13-13-|-12-12-----10-10-13-13-|
B|-------10-10-11-11-------|-------9-9-------------|-------9-9-------------|
G|-10-10-------------10-10-|--9--9------7--8-10-10-|--9--9------7--8-10-10-|
D|--------7--7--8--8-------|-------6-6-------------|-------6-6-------------|
A|-------------------------|-----------------------|-----------------------|
E|-------------------------|-----------------------|-----------------------|

    A
e|-12-12-----9-9-13-13--|-12-12-----9-9-12-12--|-13--------|
B|-------8-8------------|-------8-8------------|-----------|
G|--9--9-----6-6-10-10--|--9--9-----6-6--9--9--|-10--------|
D|-------5-5------------|-------5-5------------|-----------|
A|----------------------|----------------------|-----------|
E|----------------------|----------------------|-----------|

[Verse 1]
Dm                    Bb                         E/G#               A7
Lips are turning blue A kiss that can't renew I only dream of you My beautiful
Dm                    Bb                       E/G#                    A7      A A B(single notes)
Tiptoe to your room A starlight in the gloom I only dream of you And you never knew

[Chorus]
C          C/E* C/F* Gm  Gm7
  Sing for ab-  so-  lu- tion
Gm7/F*  Gm/E*   C
I     will  be  singing
            C/Bb* C/A* Gm     Gm9
And falling from  your grace

[Instrumental]
  Dm                                                  Bb
e|-13-13-------------15-15-|-13-13-------------15-15-|-13-13-------------15-15-|
B|-------10-10-11-11-------|-------10-10-11-11-------|-------10-10-11-11-------|
G|-10-10-------------12-12-|-10-10-------------12-12-|-10-10-------------12-12-|
D|--------7--7--8--8-------|--------7--7--8--8-------|--------7--7--8--8-------|
A|-------------------------|-------------------------|-------------------------|
E|-------------------------|-------------------------|-------------------------|

                             E7                     
e|-13-13-------------13-13-|-12-12-----10-10-13-13-|-12-12-----10-10-13-13-|
B|-------10-10-11-11-------|-------9-9-------------|-------9-9-------------|
G|-10-10-------------10-10-|--9--9------7--8-10-10-|--9--9------7--8-10-10-|
D|--------7--7--8--8-------|-------6-6-------------|-------6-6-------------|
A|-------------------------|-----------------------|-----------------------|
E|-------------------------|-----------------------|-----------------------|

    A
e|-12-12-----9-9-13-13--|-12-12-----9-9-12-12--|-13--------|
B|-------8-8------------|-------8-8------------|-----------|
G|--9--9-----6-6-10-10--|--9--9-----6-6--9--9--|-10--------|
D|-------5-5------------|-------5-5------------|-----------|
A|----------------------|----------------------|-----------|
E|----------------------|----------------------|-----------|

[Verse 2]
There's nowhere left to hide In no one to confide The truth burns deep inside And will never die
Lips are turning blueA kiss that can't renew I only dream of you My beautiful

[Chorus]
(same chords as intro, long wah for each note)
e|----------|-------------|----------|-------------|----------|-------------|
B|----------|-------------|----------|-------------|----------|-------------|
G|-7--------|-(7)--9--10--|----------|------9--10--|----------|------9--10--|
D|----------|-------------|-8--------|-(8)---------|-6--------|\2-----------|
A|-5--------|-(5)--7---8--|----------|------7---8--|----------|------7---8--|
E|----------|-------------|-6--------|-(6)---------|-4--------|\0-----------|

e|-------------|-------------|
B|-------------|-------------|
G|-10-----9--7-|/9-----------|
D|-------------|-------------|
A|--8-----7--5-|/7-----------|
E|-------------|-------------|

   C                           Gm                         C                           Gm
e|-------------|-------------|-------------|-------------|-------------|-------------|-------------|
B|-------------|-------------|-------------|-------------|-------------|-------------|-------------|
G|-9-----------|-(9)------12-|-15----------|(15)------14-|-12----------|(12)---------|-15----------|
D|-------------|-------------|-------------|-------------|-------------|-------------|-------------|
A|-------------|-------------|-------------|-------------|-------------|-------------|-------------|
E|-------------|-------------|-------------|-------------|-------------|-------------|-------------|



************************************

| (n)  Ghost note
| \    Slide down
| /    Slide up

************************************
Suggest correction
comments
print report bad tab
2 comments total.
+1 reply
jackrayment 324 Nov 01, 2012 06:00 PM

Awesome dude !!!

0 reply
chewy1297 282 Jan 06, 2015 11:15 PM

Very good, and you have the second solo! nice.

guest
You may want to rate the tab now too:
select rating
Wanna post a correction for this tab? Suggest correction