Oops, an error
Loading. Please wait.

Soaked Bass

version 1
version 1

Whole song

Interactive

1,034 views 1 this week
no commentswrite comment
1 2 3 4 5
1 last vote to show rating
add to favorites
launch autoscroll
font size
0
reset
guitar tuner
×
Best way to learn
"Soaked"
Autoscroll
slow
fast
+/-
esc
set tempo
stop
Author
Difficulty
Band: Muse
Song: Soaked
Album: Non Album Track (2006)
Bassist: Chris Wolstenholme
Tuning: Standard

Note: I'm not sure about main riff but use Your own variations if 
You want. If You have any corrections send me PM or leave Your ideas in 
comment or correction sections.

Main riff:

  +       +       +       +        +       +       +       +            
G|--------------------------------|--------------------------------| |
D|--------------3-3---3-5-6--5--3-|5---5-6-5---5-5-5-5-5-5-5-5-5-5-| |
A|-----------3--------------------|--------------------------------| |
E|4---4-4-4-----------------------|--------------------------------| |
                                                                     |
G|--------------------------------|--------------------------------| |
D|----------------3---3-5-6--5--3-|5---5-6-5---5-5-5-5-5-5-5-5-5-5-| |
A|--------------3-----------------|--------------------------------| |
E|1---1-1-1--4--------------------|--------------------------------| |x2

G|--------------------------------|
D|5~------------------------------|
A|--------------------------------|
E|--------------------------------|

No bass till 1:14

G|--------------------------------------------------|
D|------3~----------1~----6~----0~----5~------5~----|
A|3~----------1~--------------------------3h5-------|
E|--------------------------------------------------|

G|--------12---------|--------11---------|
D|---12---------10h12|---12--------------|
A|10----10----10-----|10----10-----------|
E|-------------------|-------------------|

G|--------12---------|--------11~--------|
D|---12---------10h12|---12--------------|
A|10----10----10-----|10----10-----------|
E|-------------------|-------------------|

G|--------10---------|-------------------|
D|---10---------8h10-|---------10~-------|
A|8------8-----8-----|---10--------------|
E|-------------------|8------8-----------|

G|-------------------|--------12---------|
D|--------10---------|---12---------10h12|
A|---10---------8h10-|10----10----10-----|
E|8------8-----8-----|-------------------|

G|-------------------|--------12---------|
D|--------12~--------|---12---------10h12|
A|---12--------------|10----10----10-----|
E|10----10-----------|-------------------|

G|-----------------------|
D|-----------------------|
A|10-10-10-10-10-10-10\--|
E|-----------------------|

G|------------------------------------------------|
D|------------3--3--3--3--------------1--1--1--1--|
A|3--3--3--3--------------1--1--1--1--------------|
E|------------------------------------------------|

G|------------------------------------------------|
D|6--6--6--6--0--0--0--0--5--5--5-----5--5--5--5--|
A|--------------------------------3h5-------------|
E|------------------------------------------------|


  +       +       +       +        +       +       +       +            
G|--------------------------------|--------------------------------| |
D|--------------3-3---3-5-6--5--3-|5---5-6-5---5-5-5-5-5-5-5-5-5-5-| |
A|-----------3--------------------|--------------------------------| |
E|4---4-4-4-----------------------|--------------------------------| |
                                                                     |
G|--------------------------------|--------------------------------| |
D|----------------3---3-5-6--5--3-|5---5-6-5---5-5-5-5-5-5-5-5-5-5-| |
A|--------------3-----------------|--------------------------------| |
E|1---1-1-1--4--------------------|--------------------------------| |x2

G|-------------------------------------------|
D|5(x16)/10-10-10-10-8-8-8-8-7-7-7-7-3-3-3-3-|
A|-------------------------------------------|
E|-------------------------------------------|

G|-------------------------------------------------------|
D|8(x4)-7(x4)-5(x4)-1(x4)-6(x4)-5(x4)-4(x4)-0(x4)-5(x16)-|
A|-------------------------------------------------------|
E|-------------------------------------------------------|

G|---------------------------------------------------------|
D|------3(x8)-------1(x8)-6(x8)-0(x8)-5-5-5-5-5-5----------|
A|3(x8)-------1(x8)-------------------------------3h555----|
E|------------------------------------------------------3~-|

                                      
/  slide up
\  slide down
h  hammer-on
p  pull-off
~  let ring
Suggest correction
Give kudos to tab author, rate the tab!
1 2 3 4 5
comments
print report bad tab
guest
You may want to rate the tab now too:
select rating
Wanna post a correction for this tab? Suggest correction