Oops, an error
Loading. Please wait.

Sober Bass Tab

version 1
version 1

Whole song

Interactive

by Muse
3,319 views 6 this week
3 commentsread comments
1 2 3 4 5
accurate
x 4
add to favorites
launch autoscroll
font size
0
reset
guitar tuner
Autoscroll
slow
fast
+/-
esc
set tempo
stop
Help us to improve Ultimate-Guitar.com Take our survey!
×
if u don know this song get 2 know it itz great when i marry matt we will preform it 2gether...
yea anyway here it is


Bass:(Guitar intro)
VERSE:
G:--------------------------------------------| 
D:--------------------------------------------| 
A:--------------------------------------------| 
E:-7777-7777\1111-1111-2222-2222/4444-4m-55-6-|

PRE-CHORUS ("-You're the only reason-"):
G:----------------------------------------|
D:----------------------------------------|
A:----------------------------------------|
E:-33-3r-33-3r-44-4r-44-4r-33-3r-33-3r-4r-|

(Guitar down to chorus)

CHORUS:
G:---------------------------------|
D:---------------------------------|
A:---------------------------------|
E:-0-0-00r-2-2-22r-3-3-33r-3-3-2-1-|

POST-CHORUS ("-It burns inside of me-")
G:---------------------|
D:---------------------|
A:---------------------|
E:-00000000-3m-4m-55h6-|

BREAK:
G:-----r-----r-----r----------|
D:-----e-----e-----e----------|
A:-----s-----s-----s----------|
E:-777-t-777-t-777-t-777r-7\0-|

BREAK 2:
G:---------------------------------|
D:---------------------------------|
A:---------------------------------|
E:-0-0-00r-2-2-22r-3-3-33r-5-5-55r-|

#SPECIAL# PRE-CHORUS:
G:---------------------------------|----------------|
D:---------------------------------|----------------|
A:---------------------------------|----------------|
E:-33-3r-33-3r-44-4r-4/7-7\2-4-2-1-|-33-3r-33-3r-4r-|

END:
G:--------|
D:--------|
A:--------|
E:-777r/m-|

SONG ORDER: 
VERSE x2
PRE-CHORUS x1
CHORUS x6
POST CHORUS x1
VERSE x4
PRE-CHORUS x1
CHORUS x6
POST-CHORUS x1
BREAK x1
BREAK 2 x4
VERSE x1
#SPECIAL# PRE-CHORUS x1 
CHORUS x6
POST-CHORUS x1
END x1
Suggest correction
comments
print report bad tab
3 comments total.
0 reply
XmaximX 71 wrote on August 24 2009, 05:32 am

There's a lot of octaving you're missing out on.
For example, the chorus should read,
CHORUS:
G:------------------------------------------------|
D:----2----------4----------5----0^5-0^5-0^4-0^3^0|
A:------------------------------------------------|
E:-0-0---0^2-0^2----2^3-2^3-----------------------|

0 reply
XmaximX 71 wrote on August 24 2009, 05:32 am

There's a lot of octaving you're missing out on.
For example, the chorus should read,


CHORUS:
G:------------------------------------------------|
D:----2----------4----------5----0^5-0^5-0^4-0^3^0|
A:------------------------------------------------|
E:-0-0---0^2-0^2----2^3-2^3-----------------------|

0 reply
XmaximX 71 wrote on August 24 2009, 06:27 am

I've made the same mistake twice. D'uhh.


G:------------------------------------------------|
D:----2----------4----------5----0^5-0^5-0^4-0^3^0|
A:------------------------------------------------|
E:-0-0---0^2-0^2----0^3-0^3-----------------------|

guest
You may want to rate the tab now too:
select rating
Wanna post a correction for this tab? Suggest correction