Oops, an error
Loading. Please wait.

Sober Bass Tab

version 2
version 2

Whole song

Interactive

by Muse
5,445 views 21 this week
1 commentread comment
1 2 3 4 5
excellent!
x 7
add to favorites
launch autoscroll
font size
0
reset
guitar tuner
Autoscroll
slow
fast
+/-
esc
set tempo
stop
Help us to improve Ultimate-Guitar.com Take our survey!
×
Author
Difficulty
intermediate
----------------------------------------------------------------------------
			     SOBER - Muse
----------------------------------------------------------------------------

Tabbed By : XmaXimX 

Now I'm basing the fingerings of this off their wonderful concert at Eurockeenes in 2000.
Chris has a penchant for playing in open/first position as shown in the video.

Note: this tab DOES apply to the studio recording.

___Please Rate & Comment____

Tuning: EADG

4 bar guitar intro

Verse
G:-----------------------------------------| 
D:-----------------------------------------| 
A:-2222-2222--------------------------00-1-| x2
E:----------1111-1111-2222-2222-4444-4-----|

Pre-chorus
G:-----------------------------------------|
D:-----------------------------------------|
A:-----------------------------------------|
E:-3333-3333-3333-3333-4444-4444-4444-4444-|

G:---------------------------|
D:---------------------------|
A:---------------------------|
E:-3333-3333-3333-3333-4~~~~-|

~~~~(da doo doo doo doo)~~~~

CHORUS: -Optionally- the hammer on's can be pulled off.
G:-------------------------------------------------|
D:----2----------4----------5----0h5-0h5-0h4-0h3p0-|
A:-------------------------------------------------| x6
E:-0-0---0h2-0h2----0h3-0h3------------------------|

On seventh time, go to this

Post-chorus/Pre-verse
G:----------------------|
D:----------------------|
A:-----------------00-1-|
E:-0000-0002-3334-4-----|


Now repeat (Verse - Pre-chorus - Verse - Post-chorus)
   Verse
   G:-----------------------------------------| 
   D:-----------------------------------------| 
   A:-2222-2222--------------------------00-1-| x4
   E:----------1111-1111-2222-2222-4444-4-----|

   Pre-chorus
   G:-----------------------------------------|
   D:-----------------------------------------|
   A:-----------------------------------------|
   E:-3333-3333-3333-3333-4444-4444-4444-4444-|

   G:---------------------------|
   D:---------------------------|
   A:---------------------------|
   E:-3333-3333-3333-3333-4~~~~-|

   CHORUS: -Optionally- the hammer on's can be pulled off.
   G:-------------------------------------------------|
   D:----2----------4----------5----0h5-0h5-0h4-0h3p0-|
   A:-------------------------------------------------| x6
   E:-0-0---0h2-0h2----0h3-0h3------------------------|

   On seventh time, go to this

   Post-chorus/Pre-verse
   G:----------------------|
   D:----------------------|
   A:-----------------00-1-|
   E:-0000-0002-3334-4-----|




Interlude/Guitar Solo
G|---------------------------|
D|---------------------------|
A|-222\---222\---222\---222\-|
E|---------------------------|

   beat markers (incase my spacing confuses you)|
   |       |       |       |                  <--
G:---------------------------------|
D:---------------------------------|
A:-----2-------4-------5-------7---| x4
E:-0-0---0-2-2---2-3-3---3-5-5---5-|

One round rest

Verse riff
G:-----------------------------------------| 
D:-----------------------------------------| 
A:-2222-2222--------------------------00-1-| x1
E:----------1111-1111-2222-2222-4444-4-----|


After solo pre-chorus      |----fill-----|
G:------------------------/4~~-----------|
D:------------------6~-----------4-6-4---|
A:-----------------------------6-------6-|
E:-3333-3~~---4444-----------------------|

G:---------------|
D:------5~~------|
A:---------------|
E:-3333-----4~~--|

One last chorus
G:-------------------------------------------------|
D:----2----------4----------5----0h5-0h5-0h4-0h3p0-|
A:-------------------------------------------------| x6
E:-0-0---0h2-0h2----0h3-0h3------------------------|

On seventh time, go to this

G:----------------------|---------|
D:----------------------|---------|
A:-----------------00-1-|-7777-7\-|
E:-0000-0002-3334-4-----|---------|


Enjoy!


| /  slide up
| \  slide down
| h  hammer-on
| p  pull-off
============================================================================
Suggest correction
What's this?
You can suggest a correction to this tab. Community and Mods will review your correction and vote to approve or reject it.
comments
print report bad tab
1 comment total.
+1 reply
levinzsk8er 148 wrote on December 5 2009, 03:04 am

yep this tab sounds right

guest
You may want to rate the tab now too:
select rating
Please do not post tabs as comments. Select "correction" instead!