Oops, an error
Loading. Please wait.

Sober Tab

version 2
version 2

Whole song

Interactive

by Muse
1,424 views 3 this week
no commentswrite comment
1 2 3 4 5
please rate
add to favorites
launch autoscroll
font size
0
reset
how to read this tab
guitar tuner
Tab Pro tools
  • play this tab
  • loop segment
  • change instrument
  • show fretboard
  • metronome
×
Best way to learn
"Sober"
Autoscroll
slow
fast
+/-
esc
set tempo
stop
Contributor
Band - Muse
Song - Sober

: - let ring
/ - slide up
\ - slide down
' - very short
~ - vibrato
p - pull off
x - mute note in bracket
bu - bend up
bd - bend down

e |------------------------------------------------------------------|
B |------------------------------------------------------------------|
G |------------------------------------------------------------------|
D |--9---------------------------------------------------------------|
A |-------x give or take 49 times and doubled an octave higher-------|
E |----7-------------------------------------------------------------|

e |-------3----------------------------4-----------------------------|
B |------------------------------------------------------------------|
G |------------------------------------------------------------------|
D |--------------5:-------5-------------------6:-------6-------------|
A |----5-------5--------5---5-------6-------6--------6---6-----------|
E |--3-------3--------3-------3-3/4-------4--------4-------4---------|

e |-------3----------------------------------------------------------|
B |------------------------------------------------------------------|
G |------------------------------------------------------------------|
D |--------------5:-------5-------6:---------------------------------|
A |----5-------5--------5---5-----6:---------------------------------|
E |--3-------3--------3-------3-3/4:---------------------------------|

e |--------------|----------------------------------------------|----|
B |--------------|----------------------------------------------|----|
G |--------------|----------------------------------------------|-x6-|
D |--------------|------2--------4--------5---------------------|----|
A |--------------|----------------------------------------------|----|
E |--4/10-9-8-8\-|-0-0----0'-2-2---2'-3-3---3-3-3-3-3p0-2p0-1p0-|----|

e |------------------------------------------------------------------|
B |------------------------------------------------------------------|
G |------------------------------------------------------------------|
D |--2:------2-2-5-5-5/6-6-6-----------------------------------------|
A |--2:------2-2-5-5-5/6-6-6-----------------------------------------|
E |--0:------0-0-3-3-3/4-4-4-----------------------------------------|

e |------------------------------------------------------------------|
B |------------------------------------------------------------------|
G |------------------------------------------------------------------|
D |--9---------------------------------------------------------------|
A |-------x give or take 15 times then slide up the high e-----------|
E |----7-------------------------------------------------------------|

e |-0///19~-22~-22~-22~-22\21~-21~-19~-22bu23~-22~-19~-21bu22~-19~---|
B |------------------------------------------------------------------|
G |------------------------------------------------------------------|
D |------------------------------------------------------------------|
A |------------------------------------------------------------------|
E |------------------------------------------------------------------|

e |------------------------------------------------------------------|
B |------------------------------------------------------------------|
G |------------------------------------------------------------------|
D |--9---------------------------------------------------------------|
A |-------x give or take 32 times and doubled an octave higher-------|
E |----7-------------------------------------------------------------|

e |-------3----------------------------4-----------------------------|
B |------------------------------------------------------------------|
G |------------------------------------------------------------------|
D |--------------5:-------5-------------------6:-------6-------------|
A |----5-------5--------5---5-------6-------6--------6---6-----------|
E |--3-------3--------3-------3-3/4-------4--------4-------4---------|

e |-------3----------------------------------------------------------|
B |------------------------------------------------------------------|
G |------------------------------------------------------------------|
D |--------------5:-------5-------6:---------------------------------|
A |----5-------5--------5---5-----6:---------------------------------|
E |--3-------3--------3-------3-3/4:---------------------------------|

e |--------------|----------------------------------------------|----|
B |--------------|----------------------------------------------|----|
G |--------------|----------------------------------------------|-x6-|
D |--------------|------2--------4--------5---------------------|----|
A |--------------|----------------------------------------------|----|
E |--4/10-9-8-8\-|-0-0----0'-2-2---2'-3-3---3-3-3-3-3p0-2p0-1p0-|----|

e |------------------------------------------------------------------|
B |------------------------------------------------------------------|
G |------------------------------------------------------------------|
D |--2:------2-2-5-5-5/6-6-6-----------------------------------------|
A |--2:------2-2-5-5-5/6-6-6-----------------------------------------|
E |--0:------0-0-3-3-3/4-4-4-----------------------------------------|

Distortion for the chord hits then
e |------------------------------------------------------------------|
B |------------------------------------------------------------------|
G |---------7bu8-8(on bent string)---x4------------------------------|
D |-9-9-9----------7-7-6-6bu7bd6-------------------------------------|
A |-9-9-9------------------------------------------------------------|
E |-7-7-7------------------------------------------------------------|

e |------------------------------------------------------------------|
B |------------------------------------------------------------------|
G |------------------------------------------------------------------|
D |------2--------4--------5--------7-------x4-----------------------|
A |------------------------------------------------------------------|
E |--0-0---0'-2-2---2'-3-3---3'-5-5---5-5'---------------------------|

e |------|---------------|-----------------|-------------------------|
B |------|---------------|-----------------|-------------------------|
G |------|---------------|-----------------|-------------------------|
D |-9:---|--(9)-(9)-9-x8-|-(11)-(11)-11-x2-|-(12)-(12)-12-x2---------|
A |-9:---|--(9)-(9)-9----|-(11)-(11)-11----|-(12)-(12)-12------------|
E |-7:---|--(7)-(7)-7----|-(9)--(9)--9-----|-(10)-(10)-10------------|

e |------------------------------------------------------------------|
B |------------------------------------------------------------------|
G |------------------------------------------------------------------|
D |-9--9-9-9-9-9--3-3-3-3-3-3-3-4-4-4-4-4-4-4-6-6-6-6-7-7-7-7--------|
A |-9--9-9-9-9-9--3-3-3-3-3-3-3-4-4-4-4-4-4-4-6-6-6-6-7-7-7-7--------|
E |-7--7-7-7-7-7--1-1-1-1-1-1-1/2-2-2-2-2-2-2/4-4-4-4/5-5-5-5--------|

e |---------3:-------------------4-----------------------------------|
B |---------------------------------4--------------------------------|
G |------------------------------------------------------------------|
D |--5-5-5----------------6-6-6--------6-----------------------------|
A |--5-5-5----------------6-6-6----------4---------------------------|
E |--3-3-3----------------4-4-4--------------------------------------|

e |---------3:-------------------------------------------------------|
B |------------------------------------------------------------------|
G |------------------------------------------------------------------|
D |--5-5-5------------------6:---------------------------------------|
A |--5-5-5------------------6:---------------------------------------|
E |--3-3-3------------------4:---------------------------------------|

e |--------------|----------------------------------------------|----|
B |--------------|----------------------------------------------|----|
G |--------------|----------------------------------------------|-x6-|
D |--------------|------2--------4--------5---------------------|----|
A |--------------|----------------------------------------------|----|
E |--4/10-9-8-8\-|-0-0----0'-2-2---2'-3-3---3-3-3-3-3p0-2p0-1p0-|----|

e |------------------------------------------------------------------|
B |------------------------------------------------------------------|
G |------------------------------------------------------------------|
D |--2:------2-2-5-5-5/6-6-6---9-9-9-9-9\----------------------------|
A |--2:------2-2-5-5-5/6-6-6---9-9-9-9-9\----------------------------|
E |--0:------0-0-3-3-3/4-4-4---7-7-7-7-7\----------------------------|
comments
We did not receive enough feedback on this tab! Please rate:
print report bad tab
1 2 3 4 5
I want to post or [tab]
guest
You may want to rate the tab now too:
select rating
Please do not post tabs as comments. Select "correction" instead!