Oops, an error
Loading. Please wait.

Sober Tab

version 3
version 3

Whole song

Interactive

by Muse
8,939 views 33 this week
1 commentread comment
1 2 3 4 5
worth learning
x 2
add to favorites
launch autoscroll
font size
0
reset
how to read this tab
guitar tuner
Tab Pro tools
  • play this tab
  • loop segment
  • change instrument
  • show fretboard
  • metronome
Autoscroll
slow
fast
+/-
esc
set tempo
stop
Contributor
Difficulty
novice
Intro:

e--------------------------------------------|
b-12---12---12---12---12---12---12---12------|
g--------------------------------------------| x2
d----9----9----9----9----9----9----9----9----|
a--------------------------------------------|
E--------------------------------------------|

Verse: "Royal Canadian blended..."

e-----------------------------------------|
b-12---12---12---12-----------------------|
g---------------------10---10---10---10---|
d----9----9----9----9----9----9----9----9-|
a-----------------------------------------|
E-----------------------------------------|

e-------------------------------------------|
b---12---12---12---12-----------------------|
g-----------------------13---13---13---13---|
d-9----9----9----9----9----9----9----9----9-|
a-------------------------------------------|
E-------------------------------------------|

 Do verse twice

Pre-chorus: "And you're the only reason..."

e------------------------------------------------------------------|
b------------------------------------------------------------------|
g---------4-------4--------------------------------------4-----4---|
d------------------------------------------------------------------|
a-----2-------2--------------------------------------2------2------|
E--3---------------------------------------------3-----------------|

Chorus: "You're so solid..."

e----------------------------------------|
b----------------------------------------|
g----------------------------------------| x6
d------2--------4-------5----------------|
a----------------------------------------|
E-0--0---0-2--2---3^0-3---3^0-3^0-3-2-1--|

2nd "It burns inside of me"

e------------------------------------------------------------------|
b------------------------------------------------------------------|
g------------------------------------------------------------------|
d--2:------2-2-5-5-5/6-6-6-----------------------------------------|
a--2:------2-2-5-5-5/6-6-6-----------------------------------------|
E--0:------0-0-3-3-3/4-4-4-----------------------------------------|

e-----------------------------------------|
b-12---12---12---12-----------------------|
g---------------------10---10---10---10---|
d----9----9----9----9----9----9----9----9-|
a-----------------------------------------|
E-----------------------------------------|

e-------------------------------------------|
b---12---12---12---12-----------------------|
g-----------------------13---13---13---13---|
d-9----9----9----9----9----9----9----9----9-|
a-------------------------------------------|
E-------------------------------------------|

e----------------------------------------------------------|
b-/-12---15-15-15-15-15-15-15-15-14---12--16--12--14--12---|
g----------------------------------------------------------|
d----------------------------------------------------------|
a----------------------------------------------------------|
E----------------------------------------------------------|

Verse: "And wild turkey's been chosen..."

e-----------------------------------------|
b-12---12---12---12-----------------------|
g---------------------10---10---10---10---|
d----9----9----9----9----9----9----9----9-|
a-----------------------------------------|
E-----------------------------------------|

e-------------------------------------------|
b---12---12---12---12-----------------------|
g-----------------------13---13---13---13---|
d-9----9----9----9----9----9----9----9----9-|
a-------------------------------------------|
E-------------------------------------------|

 Do verse twice

Pre-chorus: "And you're the only reason..."

e------------------------------------------------------------------|
b------------------------------------------------------------------|
g---------4-------4--------------------------------------4-----4---|
d------------------------------------------------------------------|
a-----2-------2--------------------------------------2------2------|
E--3---------------------------------------------3-----------------|

Chorus: "You're so solid..."

e----------------------------------------|
b----------------------------------------|
g----------------------------------------| x6
d------2--------4-------5----------------|
a----------------------------------------|
E-0--0---0-2--2---3^0-3---3^0-3^0-3-2-1--|

2nd "It burns inside of me"

e------------------------------------------------------------------|
b------------------------------------------------------------------|
g------------------------------------------------------------------|
d--2:------2-2-5-5-5/6-6-6-----------------------------------------|
a--2:------2-2-5-5-5/6-6-6-----------------------------------------|
E--0:------0-0-3-3-3/4-4-4-----------------------------------------|

Solo

e----------------------------|
b----------------------------|
g-4-4-4---8b-----------------| x4
d-4-4-4--------7--7-7-0-6b---|
a-2-2-2----------------------|
E-2-2-2----------------------|

e----------------------------|
b----------------------------|
g--------6b------------------| x4
d-----2------5--5-5-0-4b-----|
a----------------------------|
E-0--------------------------|

e------------------------------------------------------------------|
b------------------------------------------------------------------|
g------------------------------------------------------------------|
d-9--9-9-9-9-9--3-3-3-3-3-3-3-4-4-4-4-4-4-4-6-6-6-6-7-7-7-7--------|
a-9--9-9-9-9-9--3-3-3-3-3-3-3-4-4-4-4-4-4-4-6-6-6-6-7-7-7-7--------|
E-7--7-7-7-7-7--1-1-1-1-1-1-1/2-2-2-2-2-2-2/4-4-4-4/5-5-5-5--------|

 "And you're the only reason..."

e------3--------------------- -4-----------------------------------|
b---------------------------------4--------------------------------|
g------------------------------------------------------------------|
d--5-5-5----------------6-6-6--------6-----------------------------|
a--5-5-5----------------6-6-6----------4---------------------------|
E--3-3-3----------------4-4-4--------------------------------------|

e---------3:-------------------------------------------------------|
b------------------------------------------------------------------|
g------------------------------------------------------------------|
d--5-5-5------------------6:---------------------------------------|
a--5-5-5------------------6:---------------------------------------|
E--3-3-3------------------4:---------------------------------------|

Chorus: "You're so solid..."

e----------------------------------------|
b----------------------------------------|
g----------------------------------------| x6
d------2--------4-------5----------------|
a----------------------------------------|
E-0--0---0-2--2---3^0-3---3^0-3^0-3-2-1--|

2nd "It burns inside of meeeee"

e------------------------------------------------------------------|
b------------------------------------------------------------------|
g------------------------------------------------------------------|
d--2:------2-2-5-5-5/6-6-6---9-9-9-9-9\----------------------------|
a--2:------2-2-5-5-5/6-6-6---9-9-9-9-9\----------------------------|
E--0:------0-0-3-3-3/4-4-4---7-7-7-7-7\----------------------------|
comments
We did not receive enough feedback on this tab! Please rate:
print report bad tab
1 2 3 4 5
1 comment total.
0 reply
Gavage wrote on December 8 2008, 02:30 pm

Nah, this ain't very good

I want to post or [tab]
guest
You may want to rate the tab now too:
select rating
Please do not post tabs as comments. Select "correction" instead!